  0
SECTION
  2
HEADER
  9
$ACADVER
  1
AC1027
  9
$ACADMAINTVER
 70
   105
  9
$DWGCODEPAGE
  3
ANSI_932
  9
$REQUIREDVERSIONS
160
                 0
  9
$LASTSAVEDBY
  1
P-SEKKEI-7
  9
$CUSTOMPROPERTYTAG
  1
AmdtFileType
  9
$CUSTOMPROPERTY
  1
84
  9
$INSBASE
 10
0.0
 20
0.0
 30
0.0
  9
$EXTMIN
 10
-8772.923641366811
 20
-4805.714219485432
 30
0.0
  9
$EXTMAX
 10
-2457.92365396445
 20
-335.7142238768765
 30
0.0
  9
$LIMMIN
 10
-7244.999983203152
 20
-5077.500009785367
  9
$LIMMAX
 10
1175.0
 20
882.4999843593743
  9
$ORTHOMODE
 70
     0
  9
$REGENMODE
 70
     1
  9
$FILLMODE
 70
     1
  9
$QTEXTMODE
 70
     0
  9
$MIRRTEXT
 70
     1
  9
$LTSCALE
 40
20.0
  9
$ATTMODE
 70
     1
  9
$TEXTSIZE
 40
48.0
  9
$TRACEWID
 40
1.0
  9
$TEXTSTYLE
  7
STANDARD
  9
$CLAYER
  8
0
  9
$CELTYPE
  6
BYLAYER
  9
$CECOLOR
 62
   256
  9
$CELTSCALE
 40
1.0
  9
$DISPSILH
 70
     0
  9
$DIMSCALE
 40
1.0
  9
$DIMASZ
 40
1.6
  9
$DIMEXO
 40
1.0
  9
$DIMDLI
 40
7.0
  9
$DIMRND
 40
0.0
  9
$DIMDLE
 40
0.0
  9
$DIMEXE
 40
1.0
  9
$DIMTP
 40
0.1
  9
$DIMTM
 40
0.1
  9
$DIMTXT
 40
2.5
  9
$DIMCEN
 40
0.0
  9
$DIMTSZ
 40
0.0
  9
$DIMTOL
 70
     0
  9
$DIMLIM
 70
     0
  9
$DIMTIH
 70
     0
  9
$DIMTOH
 70
     0
  9
$DIMSE1
 70
     0
  9
$DIMSE2
 70
     0
  9
$DIMTAD
 70
     1
  9
$DIMZIN
 70
     8
  9
$DIMBLK
  1

  9
$DIMASO
 70
     1
  9
$DIMSHO
 70
     1
  9
$DIMPOST
  1

  9
$DIMAPOST
  1
"
  9
$DIMALT
 70
     0
  9
$DIMALTD
 70
     2
  9
$DIMALTF
 40
0.0393701
  9
$DIMLFAC
 40
1.0
  9
$DIMTOFL
 70
     1
  9
$DIMTVP
 40
0.0
  9
$DIMTIX
 70
     0
  9
$DIMSOXD
 70
     0
  9
$DIMSAH
 70
     0
  9
$DIMBLK1
  1

  9
$DIMBLK2
  1

  9
$DIMSTYLE
  2
AM_ISO
  9
$DIMCLRD
 70
   256
  9
$DIMCLRE
 70
   256
  9
$DIMCLRT
 70
     2
  9
$DIMTFAC
 40
0.71
  9
$DIMGAP
 40
0.625
  9
$DIMJUST
 70
     0
  9
$DIMSD1
 70
     0
  9
$DIMSD2
 70
     0
  9
$DIMTOLJ
 70
     0
  9
$DIMTZIN
 70
     8
  9
$DIMALTZ
 70
     0
  9
$DIMALTTZ
 70
     0
  9
$DIMUPT
 70
     0
  9
$DIMDEC
 70
     3
  9
$DIMTDEC
 70
     3
  9
$DIMALTU
 70
     2
  9
$DIMALTTD
 70
     2
  9
$DIMTXSTY
  7
STANDARD
  9
$DIMAUNIT
 70
     0
  9
$DIMADEC
 70
     0
  9
$DIMALTRND
 40
0.0
  9
$DIMAZIN
 70
     0
  9
$DIMDSEP
 70
    46
  9
$DIMATFIT
 70
     2
  9
$DIMFRAC
 70
     0
  9
$DIMLDRBLK
  1

  9
$DIMLUNIT
 70
     2
  9
$DIMLWD
 70
    -1
  9
$DIMLWE
 70
    -1
  9
$DIMTMOVE
 70
     0
  9
$DIMFXL
 40
1.0
  9
$DIMFXLON
 70
     0
  9
$DIMJOGANG
 40
0.7853981633974483
  9
$DIMTFILL
 70
     0
  9
$DIMTFILLCLR
 70
     0
  9
$DIMARCSYM
 70
     0
  9
$DIMLTYPE
  6

  9
$DIMLTEX1
  6

  9
$DIMLTEX2
  6

  9
$DIMTXTDIRECTION
 70
     0
  9
$LUNITS
 70
     2
  9
$LUPREC
 70
     2
  9
$SKETCHINC
 40
1.0
  9
$FILLETRAD
 40
32.0
  9
$AUNITS
 70
     0
  9
$AUPREC
 70
     0
  9
$MENU
  1
.
  9
$ELEVATION
 40
0.0
  9
$PELEVATION
 40
0.0
  9
$THICKNESS
 40
0.0
  9
$LIMCHECK
 70
     0
  9
$CHAMFERA
 40
200.0
  9
$CHAMFERB
 40
200.0
  9
$CHAMFERC
 40
20.0
  9
$CHAMFERD
 40
0.0
  9
$SKPOLY
 70
     0
  9
$TDCREATE
 40
2455295.842278472
  9
$TDUCREATE
 40
2455295.467278472
  9
$TDUPDATE
 40
2460391.588983912
  9
$TDUUPDATE
 40
2460391.213983912
  9
$TDINDWG
 40
2.9903778472
  9
$TDUSRTIMER
 40
2.9901997106
  9
$USRTIMER
 70
     1
  9
$ANGBASE
 50
0.0
  9
$ANGDIR
 70
     0
  9
$PDMODE
 70
     0
  9
$PDSIZE
 40
0.0
  9
$PLINEWID
 40
0.0
  9
$SPLFRAME
 70
     0
  9
$SPLINETYPE
 70
     6
  9
$SPLINESEGS
 70
     8
  9
$HANDSEED
  5
37A15
  9
$SURFTAB1
 70
     6
  9
$SURFTAB2
 70
     6
  9
$SURFTYPE
 70
     6
  9
$SURFU
 70
     6
  9
$SURFV
 70
     6
  9
$UCSBASE
  2

  9
$UCSNAME
  2

  9
$UCSORG
 10
0.0
 20
0.0
 30
0.0
  9
$UCSXDIR
 10
1.0
 20
0.0
 30
0.0
  9
$UCSYDIR
 10
0.0
 20
1.0
 30
0.0
  9
$UCSORTHOREF
  2

  9
$UCSORTHOVIEW
 70
     0
  9
$UCSORGTOP
 10
0.0
 20
0.0
 30
0.0
  9
$UCSORGBOTTOM
 10
0.0
 20
0.0
 30
0.0
  9
$UCSORGLEFT
 10
0.0
 20
0.0
 30
0.0
  9
$UCSORGRIGHT
 10
0.0
 20
0.0
 30
0.0
  9
$UCSORGFRONT
 10
0.0
 20
0.0
 30
0.0
  9
$UCSORGBACK
 10
0.0
 20
0.0
 30
0.0
  9
$PUCSBASE
  2

  9
$PUCSNAME
  2

  9
$PUCSORG
 10
0.0
 20
0.0
 30
0.0
  9
$PUCSXDIR
 10
1.0
 20
0.0
 30
0.0
  9
$PUCSYDIR
 10
0.0
 20
1.0
 30
0.0
  9
$PUCSORTHOREF
  2

  9
$PUCSORTHOVIEW
 70
     0
  9
$PUCSORGTOP
 10
0.0
 20
0.0
 30
0.0
  9
$PUCSORGBOTTOM
 10
0.0
 20
0.0
 30
0.0
  9
$PUCSORGLEFT
 10
0.0
 20
0.0
 30
0.0
  9
$PUCSORGRIGHT
 10
0.0
 20
0.0
 30
0.0
  9
$PUCSORGFRONT
 10
0.0
 20
0.0
 30
0.0
  9
$PUCSORGBACK
 10
0.0
 20
0.0
 30
0.0
  9
$USERI1
 70
     0
  9
$USERI2
 70
     0
  9
$USERI3
 70
     0
  9
$USERI4
 70
     0
  9
$USERI5
 70
     0
  9
$USERR1
 40
0.0
  9
$USERR2
 40
0.0
  9
$USERR3
 40
0.0
  9
$USERR4
 40
0.0
  9
$USERR5
 40
0.0
  9
$WORLDVIEW
 70
     1
  9
$SHADEDGE
 70
     3
  9
$SHADEDIF
 70
    70
  9
$TILEMODE
 70
     1
  9
$MAXACTVP
 70
    48
  9
$PINSBASE
 10
0.0
 20
0.0
 30
0.0
  9
$PLIMCHECK
 70
     0
  9
$PEXTMIN
 10
1.000000000000000E+20
 20
1.000000000000000E+20
 30
1.000000000000000E+20
  9
$PEXTMAX
 10
-1.000000000000000E+20
 20
-1.000000000000000E+20
 30
-1.000000000000000E+20
  9
$PLIMMIN
 10
0.0
 20
0.0
  9
$PLIMMAX
 10
420.0
 20
297.0
  9
$UNITMODE
 70
     0
  9
$VISRETAIN
 70
     1
  9
$PLINEGEN
 70
     0
  9
$PSLTSCALE
 70
     1
  9
$TREEDEPTH
 70
  3020
  9
$CMLSTYLE
  2
Standard
  9
$CMLJUST
 70
     0
  9
$CMLSCALE
 40
20.0
  9
$PROXYGRAPHICS
 70
     1
  9
$MEASUREMENT
 70
     1
  9
$CELWEIGHT
370
    -1
  9
$ENDCAPS
280
     0
  9
$JOINSTYLE
280
     0
  9
$LWDISPLAY
290
     0
  9
$INSUNITS
 70
     0
  9
$HYPERLINKBASE
  1

  9
$STYLESHEET
  1
monochrome.ctb
  9
$XEDIT
290
     1
  9
$CEPSNTYPE
380
     0
  9
$PSTYLEMODE
290
     1
  9
$FINGERPRINTGUID
  2
{881B1582-4BC7-11D3-AB9D-00805F8B7187}
  9
$VERSIONGUID
  2
{2BF98A95-B320-4428-9377-50EDB869906E}
  9
$EXTNAMES
290
     1
  9
$PSVPSCALE
 40
0.0
  9
$OLESTARTUP
290
     0
  9
$SORTENTS
280
   127
  9
$INDEXCTL
280
     0
  9
$HIDETEXT
280
     0
  9
$XCLIPFRAME
280
     2
  9
$HALOGAP
280
     0
  9
$OBSCOLOR
 70
   257
  9
$OBSLTYPE
280
     0
  9
$INTERSECTIONDISPLAY
280
     0
  9
$INTERSECTIONCOLOR
 70
   257
  9
$DIMASSOC
280
     1
  9
$PROJECTNAME
  1

  9
$CAMERADISPLAY
290
     0
  9
$LENSLENGTH
 40
50.0
  9
$CAMERAHEIGHT
 40
0.0
  9
$STEPSPERSEC
 40
2.0
  9
$STEPSIZE
 40
6.0
  9
$3DDWFPREC
 40
2.0
  9
$PSOLWIDTH
 40
0.25
  9
$PSOLHEIGHT
 40
4.0
  9
$LOFTANG1
 40
1.570796326794897
  9
$LOFTANG2
 40
1.570796326794897
  9
$LOFTMAG1
 40
0.0
  9
$LOFTMAG2
 40
0.0
  9
$LOFTPARAM
 70
     7
  9
$LOFTNORMALS
280
     1
  9
$LATITUDE
 40
37.795
  9
$LONGITUDE
 40
-122.394
  9
$NORTHDIRECTION
 40
0.0
  9
$TIMEZONE
 70
 -8000
  9
$LIGHTGLYPHDISPLAY
280
     1
  9
$TILEMODELIGHTSYNCH
280
     1
  9
$CMATERIAL
347
363C7
  9
$SOLIDHIST
280
     1
  9
$SHOWHIST
280
     1
  9
$DWFFRAME
280
     2
  9
$DGNFRAME
280
     0
  9
$REALWORLDSCALE
290
     1
  9
$INTERFERECOLOR
 62
   256
  9
$CSHADOW
280
     0
  9
$SHADOWPLANELOCATION
 40
0.0
  0
ENDSEC
  0
SECTION
  2
CLASSES
  0
CLASS
  1
ACDBDICTIONARYWDFLT
  2
AcDbDictionaryWithDefault
  3
ObjectDBX Classes
 90
        0
 91
        4
280
     0
281
     0
  0
CLASS
  1
ACME_DOCUMENT
  2
AcMeDbDoc
  3
AcMeServices
 90
     1024
 91
        1
280
     1
281
     0
  0
CLASS
  1
AMGSETTINGSOBJ
  2
AmgSettingsObj
  3
AmgSettingsObj|...|...
 90
        0
 91
        4
280
     0
281
     0
  0
CLASS
  1
ACMESCOPE
  2
AcMeScope
  3
AcMeScope|...|...
 90
        0
 91
        4
280
     0
281
     0
  0
CLASS
  1
ACMECOMMANDHISTORY
  2
AcMeCommandHistory
  3
AcMeServices
 90
     1024
 91
        1
280
     1
281
     0
  0
CLASS
  1
DICTIONARYVAR
  2
AcDbDictionaryVar
  3
ObjectDBX Classes
 90
        0
 91
        4
280
     0
281
     0
  0
CLASS
  1
ACIMSYSVARMAN
  2
AcImSysVarManager
  3
AcImSysVarManager|...|...
 90
        0
 91
        4
280
     0
281
     0
  0
CLASS
  1
ACIMREALSYSVAR
  2
AcImRealSysVar
  3
AcMeServices
 90
     1024
 91
        1
280
     1
281
     0
  0
CLASS
  1
ACIMINTSYSVAR
  2
AcImIntSysVar
  3
AcImIntSysVar|...|...
 90
        0
 91
        4
280
     0
281
     0
  0
CLASS
  1
ACMEDRAWINGMAN
  2
AcMeDrawingMan
  3
AcMeServices
 90
     1024
 91
        1
280
     1
281
     0
  0
CLASS
  1
ACMEVIEW
  2
AcMeView
  3
AcMeServices
 90
     1024
 91
        1
280
     1
281
     0
  0
CLASS
  1
ACDBENTITYCACHE
  2
AcMeEntityCache
  3
AcMeServices
 90
     1024
 91
        1
280
     1
281
     0
  0
CLASS
  1
GSMANAGER
  2
AcMeGSManager
  3
AcMeServices
 90
        0
 91
        1
280
     1
281
     0
  0
CLASS
  1
AMDTINTERNALREACTOR
  2
AmdtInternalReactor
  3
AcMeServices
 90
     1024
 91
        1
280
     1
281
     0
  0
CLASS
  1
ACMESTATEMGR
  2
AcMeStateMgr
  3
AcMeStateMgr|...|...
 90
        0
 91
        4
280
     0
281
     0
  0
CLASS
  1
ACGREFMASTER
  2
AcGrefMaster
  3
AcAttribServices
 90
     1024
 91
        1
280
     1
281
     0
  0
CLASS
  1
ACME_DATABASE
  2
AcMeDbDatabase
  3
AcMeServices
 90
     1024
 91
        1
280
     1
281
     0
  0
CLASS
  1
ACRFINSADJUSTERMGR
  2
AcRfInsAdjusterMgr
  3
AcMeServices
 90
     1024
 91
        1
280
     1
281
     0
  0
CLASS
  1
ACGREFACADMASTER
  2
AcGrefacadMaster
  3
AcGrefServices
 90
     1024
 91
        1
280
     1
281
     0
  0
CLASS
  1
AMIMASTER
  2
AmiMaster
  3
AmiServices
 90
     1024
 91
        1
280
     1
281
     0
  0
CLASS
  1
ACMDATADICTIONARY
  2
AcmDataDictionary
  3
AcmDataDictionary|...|...
 90
        0
 91
        4
280
     0
281
     0
  0
CLASS
  1
ACMDATAENTRYBLOCK
  2
AcmDataEntryBlock
  3
AcmDataEntryBlock|...|...
 90
        0
 91
        4
280
     0
281
     0
  0
CLASS
  1
ACIMSTRSYSVAR
  2
AcImStrSysVar
  3
AcImStrSysVar|...|...
 90
        0
 91
        4
280
     0
281
     0
  0
CLASS
  1
ACMSTANDARDISO
  2
AcmStandardISO
  3
AcmStandardISO|...|...
 90
        0
 91
        6
280
     0
281
     0
  0
CLASS
  1
AMGOBJPROPCFG
  2
AmgObjPropCfg
  3
AmgObjPropCfg|...|...
 90
        0
 91
        4
280
     0
281
     0
  0
CLASS
  1
AMDTEDGESTANDARDISO
  2
AmdtEdgeStdISO
  3
AmdtEdgeStdISO|...|...
 90
        0
 91
        6
280
     0
281
     0
  0
CLASS
  1
ACMSURFSTANDARDISO
  2
AcmSurfTextStdISO
  3
AcmSurfTextStdISO|...|...
 90
        0
 91
        8
280
     0
281
     0
  0
CLASS
  1
ACMFCFSTANDARDISO
  2
AcmFCFStdISO
  3
AcmFCFStdISO|...|...
 90
        0
 91
        7
280
     0
281
     0
  0
CLASS
  1
ACMWELDSTANDARDISO
  2
AcmWeldingStdISO
  3
AcmWeldingStdISO|...|...
 90
        0
 91
        8
280
     0
281
     0
  0
CLASS
  1
ACMIDSTANDARDISO
  2
AcmIdStdISO
  3
AcmIdStdISO|...|...
 90
        0
 91
        8
280
     0
281
     0
  0
CLASS
  1
ACMDATUMSTANDARDISO
  2
AcmDatumStdISO
  3
AcmDatumStdISO|...|...
 90
        0
 91
        9
280
     0
281
     0
  0
CLASS
  1
ACMBOMSTANDARDISO
  2
AcmBOMStdISO
  3
AcmBOMStdISO|...|...
 90
        0
 91
        6
280
     0
281
     0
  0
CLASS
  1
ACMDETAILSTANDARDISO
  2
AmdtDetailSymStdISO
  3
AmdtDetailSymStdISO|...|...
 90
        0
 91
        4
280
     0
281
     0
  0
CLASS
  1
ACMSECTIONSTANDARDISO
  2
AmdtSectionSymStdISO
  3
AmdtSectionSymStdISO|...|...
 90
        0
 91
        5
280
     0
281
     0
  0
CLASS
  1
ACMCENTERLINESTANDARDISO
  2
AmdtCenterLineStdISO
  3
AmdtCenterLineStdISO|...|...
 90
        0
 91
        4
280
     0
281
     0
  0
CLASS
  1
ACAMGLAYSTD
  2
AcAmgLayStd
  3
AcAmgLayStd|...|...
 90
        0
 91
        4
280
     0
281
     0
  0
CLASS
  1
ACAMGDIMSTD
  2
AcAmgDimStd
  3
AcAmgDimStd|...|...
 90
        0
 91
        4
280
     0
281
     0
  0
CLASS
  1
ACAMGTITLESTD
  2
AcAmgTitleStd
  3
AcAmgTitleStd|...|...
 90
        0
 91
        4
280
     0
281
     0
  0
CLASS
  1
LAYER_INDEX
  2
AcDbLayerIndex
  3
ObjectDBX Classes
 90
        0
 91
        4
280
     0
281
     0
  0
CLASS
  1
IDBUFFER
  2
AcDbIdBuffer
  3
ObjectDBX Classes
 90
        0
 91
        4
280
     0
281
     0
  0
CLASS
  1
ACMSTANDARDJIS
  2
AcmStandardJIS
  3
AcmStandardJIS|...|...
 90
        0
 91
        4
280
     0
281
     0
  0
CLASS
  1
ACMSURFSTANDARDJIS
  2
AcmSurfTextStdJIS
  3
AcmSurfTextStdJIS|...|...
 90
        0
 91
        5
280
     0
281
     0
  0
CLASS
  1
ACMFCFSTANDARDJIS
  2
AcmFCFStdJIS
  3
AcmFCFStdJIS|...|...
 90
        0
 91
        5
280
     0
281
     0
  0
CLASS
  1
ACMWELDSTANDARDJIS
  2
AcmWeldingStdJIS
  3
AcmWeldingStdJIS|...|...
 90
        0
 91
        4
280
     0
281
     0
  0
CLASS
  1
ACMIDSTANDARDJIS
  2
AcmIdStdJIS
  3
AcmIdStdJIS|...|...
 90
        0
 91
        5
280
     0
281
     0
  0
CLASS
  1
ACMDATUMSTANDARDJIS
  2
AcmDatumStdJIS
  3
AcmDatumStdJIS|...|...
 90
        0
 91
        4
280
     0
281
     0
  0
CLASS
  1
ACMBOMSTANDARDJIS
  2
AcmBOMStdJIS
  3
AcmBOMStdJIS|...|...
 90
        0
 91
        4
280
     0
281
     0
  0
CLASS
  1
ACMDETAILSTANDARDJIS
  2
AmdtDetailSymStdJIS
  3
AmdtDetailSymStdJIS|...|...
 90
        0
 91
        4
280
     0
281
     0
  0
CLASS
  1
ACMSECTIONSTANDARDJIS
  2
AmdtSectionSymStdJIS
  3
AmdtSectionSymStdJIS|...|...
 90
        0
 91
        4
280
     0
281
     0
  0
CLASS
  1
ACMCENTERLINESTANDARDJIS
  2
AmdtCenterLineStdJIS
  3
AmdtCenterLineStdJIS|...|...
 90
        0
 91
        4
280
     0
281
     0
  0
CLASS
  1
ACAMGFILTERDAT
  2
AcAmgFilterDat
  3
"AcadM|Product Description: AutoCAD Mechanical|Company: Autodesk, Inc."
 90
     1024
 91
        1
280
     1
281
     0
  0
CLASS
  1
AMDTFORMULAUPDATEDISPATCHER
  2
AmdtFormulaUpdateDispatcher
  3
AcMeServices
 90
     1024
 91
        1
280
     1
281
     0
  0
CLASS
  1
ACMNOTESTANDARDJIS
  2
AmdtNoteStdJIS
  3
AmdtNoteStdJIS|...|...
 90
        0
 91
        4
280
     0
281
     0
  0
CLASS
  1
ACMNOTESTANDARDISO
  2
AmdtNoteStdISO
  3
AmdtNoteStdISO|...|...
 90
        0
 91
        4
280
     0
281
     0
  0
CLASS
  1
ACMDATAENTRY
  2
AcmDataEntry
  3
AcmDataEntry|...|...
 90
        0
 91
        6
280
     0
281
     0
  0
CLASS
  1
ACMBOM
  2
AcmBom
  3
AcmBom|...|...
 90
        0
 91
        4
280
     0
281
     0
  0
CLASS
  1
ACMPARTLIST
  2
AcmPartList
  3
AcmPartList|...|...
 90
        0
 91
        4
280
     0
281
     1
  0
CLASS
  1
ACDBLINERES
  2
AcDbLineRes
  3
AcDbLineRes|...|...
 90
        0
 91
        5
280
     0
281
     0
  0
CLASS
  1
ACRFINSADJ
  2
AcRfInsAdjuster
  3
AcRfInsAdjuster|...|...
 90
        0
 91
        5
280
     0
281
     0
  0
CLASS
  1
ACMDATAENTRYPART
  2
AcmDataEntryPart
  3
AcmDataEntryPart|...|...
 90
        0
 91
        4
280
     0
281
     0
  0
CLASS
  1
ACMPARTREF
  2
AcmPartRef
  3
AcmPartRef|...|...
 90
        0
 91
        4
280
     0
281
     1
  0
CLASS
  1
ACMBOMROW
  2
AcmBomRow
  3
AcmBomRow|...|...
 90
        0
 91
        4
280
     0
281
     0
  0
CLASS
  1
ACMBALLOON
  2
AcmBalloon
  3
AcmBalloon|...|...
 90
        0
 91
        4
280
     0
281
     1
  0
CLASS
  1
ACMSTANDARDANSI
  2
AcmStandardANSI
  3
AcmStandardANSI|...|...
 90
        0
 91
        4
280
     0
281
     0
  0
CLASS
  1
ACMSURFSTANDARDANSI
  2
AcmSurfTextStdANSI
  3
AcmSurfTextStdANSI|...|...
 90
        0
 91
        4
280
     0
281
     0
  0
CLASS
  1
ACMFCFSTANDARDANSI
  2
AcmFCFStdANSI
  3
AcmFCFStdANSI|...|...
 90
        0
 91
        5
280
     0
281
     0
  0
CLASS
  1
ACMWELDSTANDARDANSI
  2
AcmWeldingStdANSI
  3
AcmWeldingStdANSI|...|...
 90
        0
 91
        4
280
     0
281
     0
  0
CLASS
  1
ACMIDSTANDARDANSI
  2
AcmIdStdANSI
  3
AcmIdStdANSI|...|...
 90
        0
 91
        5
280
     0
281
     0
  0
CLASS
  1
ACMDATUMSTANDARDANSI
  2
AcmDatumStdANSI
  3
AcmDatumStdANSI|...|...
 90
        0
 91
        4
280
     0
281
     0
  0
CLASS
  1
ACMBOMSTANDARDANSI
  2
AcmBOMStdANSI
  3
AcmBOMStdANSI|...|...
 90
        0
 91
        4
280
     0
281
     0
  0
CLASS
  1
ACMDETAILSTANDARDANSI
  2
AmdtDetailSymStdANSI
  3
AmdtDetailSymStdANSI|...|...
 90
        0
 91
        4
280
     0
281
     0
  0
CLASS
  1
ACMSECTIONSTANDARDANSI
  2
AmdtSectionSymStdANSI
  3
AmdtSectionSymStdANSI|...|...
 90
        0
 91
        4
280
     0
281
     0
  0
CLASS
  1
ACMCENTERLINESTANDARDANSI
  2
AmdtCenterLineStdANSI
  3
AmdtCenterLineStdANSI|...|...
 90
        0
 91
        4
280
     0
281
     0
  0
CLASS
  1
ACMNOTESTANDARDANSI
  2
AmdtNoteStdANSI
  3
AmdtNoteStdANSI|...|...
 90
        0
 91
        4
280
     0
281
     0
  0
CLASS
  1
ACAMGHOLECHARTSTDANSI
  2
AcAmgHoleChartStdANSI
  3
AcAmgHoleChartStdANSI|...|...
 90
        0
 91
        4
280
     0
281
     0
  0
CLASS
  1
AMDTACMWBLOCKBOMENTITY
  2
AmdtAcmWblockBomEntity
  3
AmdtAcmWblockBomEntity|...|...
 90
        0
 91
        4
280
     0
281
     1
  0
CLASS
  1
ACDBCIRCARCRES
  2
AcDbCircArcRes
  3
AcDbCircArcRes|...|...
 90
        0
 91
        5
280
     0
281
     0
  0
CLASS
  1
AMDTNOTE
  2
AmdtNote
  3
AmdtNote|...|...
 90
        0
 91
        4
280
     0
281
     1
  0
CLASS
  1
MATERIAL
  2
AcDbMaterial
  3
ObjectDBX Classes
 90
     1153
 91
        4
280
     0
281
     0
  0
CLASS
  1
VISUALSTYLE
  2
AcDbVisualStyle
  3
ObjectDBX Classes
 90
     4095
 91
        4
280
     0
281
     0
  0
CLASS
  1
TABLESTYLE
  2
AcDbTableStyle
  3
ObjectDBX Classes
 90
     4095
 91
        4
280
     0
281
     0
  0
CLASS
  1
SCALE
  2
AcDbScale
  3
ObjectDBX Classes
 90
     1153
 91
        4
280
     0
281
     0
  0
CLASS
  1
MLEADERSTYLE
  2
AcDbMLeaderStyle
  3
ACDB_MLEADERSTYLE_CLASS
 90
     4095
 91
        4
280
     0
281
     0
  0
CLASS
  1
ACDBSECTIONVIEWSTYLE
  2
AcDbSectionViewStyle
  3
ObjectDBX Classes
 90
     1025
 91
        4
280
     0
281
     0
  0
CLASS
  1
ACDBDETAILVIEWSTYLE
  2
AcDbDetailViewStyle
  3
ObjectDBX Classes
 90
     1025
 91
        4
280
     0
281
     0
  0
CLASS
  1
AMDTMENUSTATEMGR
  2
AmdtMenuStateMgr
  3
McadcomServices
 90
     1024
 91
        1
280
     1
281
     0
  0
CLASS
  1
AMDTMCOMMENUSTATE
  2
AmdtMcomMenuState
  3
McadcomServices
 90
     1024
 91
        1
280
     1
281
     0
  0
CLASS
  1
MAPIAMMOUDLE
  2
MApiAmModule
  3
MApiAmServices
 90
     1024
 91
        1
280
     1
281
     0
  0
CLASS
  1
AMDTAMMENUSTATE
  2
AmdtAmMenuState
  3
DesignerAssemblies
 90
     1024
 91
        1
280
     1
281
     0
  0
CLASS
  1
ACAMPROJECT
  2
AcAmProject
  3
AcAmProject|...|...
 90
        0
 91
        4
280
     0
281
     0
  0
CLASS
  1
ACAMGRCOMPDEF
  2
AcAmGrCompDef
  3
AcAmGrCompDef|...|...
 90
        0
 91
        4
280
     0
281
     0
  0
CLASS
  1
ACAMCOMPDEF
  2
AcAmCompDef
  3
AcAmCompDef|...|...
 90
        0
 91
        4
280
     0
281
     0
  0
CLASS
  1
ACAMCOMPDEFMGR
  2
AcAmCompDefMgr
  3
AcAmCompDefMgr|...|...
 90
        0
 91
        4
280
     0
281
     0
  0
CLASS
  1
ACAMCONTEXTMGR
  2
AcAmContextMgr
  3
AcAmContextMgr|...|...
 90
        0
 91
        4
280
     0
281
     0
  0
CLASS
  1
ACAMCONTEXTMODELER
  2
AcAmContextModeler
  3
AcAmContextModeler|...|...
 90
        0
 91
        4
280
     0
281
     0
  0
CLASS
  1
ACRFATTGENMGR
  2
AcRfAttGeneralMgr
  3
AcAttribServices
 90
     1024
 91
        1
280
     1
281
     0
  0
CLASS
  1
ACRFOBJATTMGR
  2
AcRfObjAttGroupMgr
  3
AcAttribServices
 90
     1024
 91
        1
280
     1
281
     0
  0
CLASS
  1
ACRFMCADAPIATTHOLDER
  2
AcRfMCADAPIAttHolder
  3
AcAttribServices
 90
     1024
 91
        1
280
     1
281
     0
  0
CLASS
  1
AMDTSYSATTR
  2
AmdtSystemAttribute
  3
AmdtSystemAttribute|...|...
 90
        0
 91
        4
280
     0
281
     0
  0
CLASS
  1
ACMTHREADLINESTANDARDJIS
  2
AmdtThreadLineStdJIS
  3
AmdtThreadLineStdJIS|...|...
 90
        0
 91
        4
280
     0
281
     0
  0
CLASS
  1
ACMTAPERSTANDARDJIS
  2
AcmTaperStdJIS
  3
AcmTaperStdJIS|...|...
 90
        0
 91
        4
280
     0
281
     0
  0
CLASS
  1
ACMANOOTATIONVIEWSTANDARDJIS
  2
AmdtAnViewStdJIS
  3
AmdtAnViewStdJIS|...|...
 90
        0
 91
        4
280
     0
281
     0
  0
CLASS
  1
AMDTEDGESTANDARDJIS
  2
AmdtEdgeStdJIS
  3
AmdtEdgeStdJIS|...|...
 90
        0
 91
        4
280
     0
281
     0
  0
CLASS
  1
ACMTHREADLINESTANDARDISO
  2
AmdtThreadLineStdISO
  3
AmdtThreadLineStdISO|...|...
 90
        0
 91
        4
280
     0
281
     0
  0
CLASS
  1
ACMTAPERSTANDARDISO
  2
AcmTaperStdISO
  3
AcmTaperStdISO|...|...
 90
        0
 91
        7
280
     0
281
     0
  0
CLASS
  1
ACMANOOTATIONVIEWSTANDARDISO
  2
AmdtAnViewStdISO
  3
AmdtAnViewStdISO|...|...
 90
        0
 91
        4
280
     0
281
     0
  0
CLASS
  1
ACMTHREADLINESTANDARDANSI
  2
AmdtThreadLineStdANSI
  3
AmdtThreadLineStdANSI|...|...
 90
        0
 91
        4
280
     0
281
     0
  0
CLASS
  1
ACMTAPERSTANDARDANSI
  2
AcmTaperStdANSI
  3
AcmTaperStdANSI|...|...
 90
        0
 91
        4
280
     0
281
     0
  0
CLASS
  1
ACMANOOTATIONVIEWSTANDARDANSI
  2
AmdtAnViewStdANSI
  3
AmdtAnViewStdANSI|...|...
 90
        0
 91
        4
280
     0
281
     0
  0
CLASS
  1
ACAMGRCOMPDEFSET
  2
AcAmGrCompDefSet
  3
DesignerAssemblies
 90
     1024
 91
        1
280
     1
281
     0
  0
CLASS
  1
AMDTBROWSERDBTAB
  2
AmdtBrowserDbTab
  3
McadcomServices
 90
     1024
 91
        1
280
     1
281
     0
  0
CLASS
  1
CBROWSERAPPOBJECT
  2
CBrowserAppObject
  3
McadcomServices
 90
     1024
 91
        1
280
     1
281
     0
  0
CLASS
  1
DM_PLACEHOLDER
  2
AcDmSelsetPlaceholder
  3
McadcomServices
 90
     1024
 91
        1
280
     1
281
     0
  0
CLASS
  1
CAMSSTRUCTBTNSTATE
  2
StructBtnState
  3
DesignerAssemblies
 90
     1024
 91
        1
280
     1
281
     0
  0
CLASS
  1
AMDTNOTETEMPLATEDB
  2
AmdtNoteTemplateDB
  3
AmdtNoteTemplateDB|...|...
 90
        0
 91
        4
280
     0
281
     0
  0
CLASS
  1
CELLSTYLEMAP
  2
AcDbCellStyleMap
  3
ObjectDBX Classes
 90
     1152
 91
        4
280
     0
281
     0
  0
CLASS
  1
SORTENTSTABLE
  2
AcDbSortentsTable
  3
ObjectDBX Classes
 90
        0
 91
        4
280
     0
281
     0
  0
CLASS
  1
AMDTEDGESTANDARDISO13715
  2
AmdtEdgeStdISO13715
  3
AmdtEdgeStdISO13715|...|...
 90
        0
 91
        5
280
     0
281
     0
  0
CLASS
  1
ACMSURFSTANDARDISO2002
  2
AcmSurfTextStdISO2002
  3
AcmSurfTextStdISO2002|...|...
 90
        0
 91
        5
280
     0
281
     0
  0
CLASS
  1
ACMFCFSTANDARDISO2004
  2
AcmFCFStdISO2004
  3
AcmFCFStdISO2004|...|...
 90
        0
 91
        6
280
     0
281
     0
  0
CLASS
  1
ACMIDSTANDARDISO2004
  2
AcmIdStdISO2004
  3
AcmIdStdISO2004|...|...
 90
        0
 91
        6
280
     0
281
     0
  0
CLASS
  1
ACMSECTIONSTANDARDISO2001
  2
AmdtSectionSymStdISO2001
  3
AmdtSectionSymStdISO2001|...|...
 90
        0
 91
        4
280
     0
281
     0
  0
CLASS
  1
ACAMGHOLECHARTSTDISO
  2
AcAmgHoleChartStdISO
  3
AcAmgHoleChartStdISO|...|...
 90
        0
 91
        4
280
     0
281
     0
  0
CLASS
  1
ACDBPLACEHOLDER
  2
AcDbPlaceHolder
  3
ObjectDBX Classes
 90
        0
 91
        1
280
     0
281
     0
  0
CLASS
  1
LAYOUT
  2
AcDbLayout
  3
ObjectDBX Classes
 90
        0
 91
        1
280
     0
281
     0
  0
CLASS
  1
ACMFCFSTANDARDJIS98
  2
AcmFCFStdJIS98
  3
AcmFCFStdJIS98|...|...
 90
        0
 91
        4
280
     0
281
     0
  0
CLASS
  1
ACAMGHOLECHARTSTDJIS
  2
AcAmgHoleChartStdJIS
  3
AcAmgHoleChartStdJIS|...|...
 90
        0
 91
        4
280
     0
281
     0
  0
CLASS
  1
ACMSURFSTANDARDJIS2003
  2
AcmSurfTextStdJIS2003
  3
AcmSurfTextStdJIS2003|...|...
 90
        0
 91
        4
280
     0
281
     0
  0
CLASS
  1
ACMIDSTANDARDJIS1998
  2
AcmIdStdJIS1998
  3
AcmIdStdJIS1998|...|...
 90
        0
 91
        4
280
     0
281
     0
  0
CLASS
  1
ACMDETAILSTANDARDCUSTOM
  2
AmdtDetailSymStdCustom
  3
AmdtDetailSymStdCustom|...|...
 90
        0
 91
        4
280
     0
281
     0
  0
CLASS
  1
ACMSECTIONSTANDARDCUSTOM
  2
AmdtSectionSymStdCustom
  3
AmdtSectionSymStdCustom|...|...
 90
        0
 91
        4
280
     0
281
     0
  0
CLASS
  1
AMDTEDGELIBRARY
  2
AmdtEdgeLibrary
  3
AmdtEdgeLibrary|...|...
 90
        0
 91
        4
280
     0
281
     0
  0
CLASS
  1
AMDTFCFLIBRARY
  2
AmdtFCFLibrary
  3
AmdtFCFLibrary|...|...
 90
        0
 91
        4
280
     0
281
     0
  0
CLASS
  1
AMDTSURFTEXTLIBRARY
  2
AmdtSurfTextLibrary
  3
AmdtSurfTextLibrary|...|...
 90
        0
 91
        4
280
     0
281
     0
  0
CLASS
  1
AMDTWELDINGLIBRARY
  2
AmdtWeldingLibrary
  3
AmdtWeldingLibrary|...|...
 90
        0
 91
        4
280
     0
281
     0
  0
CLASS
  1
AMDTEDGELIBOBJECT
  2
AmdtEdgeLibObject
  3
AmdtEdgeLibObject|...|...
 90
        0
 91
        4
280
     0
281
     0
  0
CLASS
  1
AMDTFCFLIBOBJECT
  2
AmdtFCFLibObject
  3
AmdtFCFLibObject|...|...
 90
        0
 91
        4
280
     0
281
     0
  0
CLASS
  1
AMDTSURFTEXTLIBOBJECT
  2
AmdtSurfTextLibObject
  3
AmdtSurfTextLibObject|...|...
 90
        0
 91
        4
280
     0
281
     0
  0
CLASS
  1
AMDTWELDINGLIBOBJECT
  2
AmdtWeldingLibObject
  3
AmdtWeldingLibObject|...|...
 90
        0
 91
        4
280
     0
281
     0
  0
CLASS
  1
WIPEOUT
  2
AcDbWipeout
  3
WipeOut|AutoCAD Express Tool|expresstools@autodesk.com
 90
      127
 91
        4
280
     0
281
     1
  0
ENDSEC
  0
SECTION
  2
TABLES
  0
TABLE
  2
VPORT
  5
8
330
0
100
AcDbSymbolTable
 70
     1
  0
VPORT
  5
8D53
330
8
100
AcDbSymbolTableRecord
100
AcDbViewportTableRecord
  2
*Active
 70
     0
 10
0.0
 20
0.0
 11
1.0
 21
1.0
 12
-5111.933487605396
 22
-2764.12999022235
 13
0.0
 23
0.0
 14
50.0
 24
50.0
 15
200.0
 25
200.0
 16
0.0
 26
0.0
 36
1.0
 17
0.0
 27
0.0
 37
0.0
 40
7319.03593250342
 41
2.090529247910863
 42
50.0
 43
0.0
 44
0.0
 50
0.0
 51
0.0
 71
     0
 72
   100
 73
     1
 74
     1
 75
     0
 76
     0
 77
     0
 78
     0
281
     0
 65
     0
110
0.0
120
0.0
130
0.0
111
1.0
121
0.0
131
0.0
112
0.0
122
1.0
132
0.0
 79
     0
146
0.0
348
8D74
 60
     3
 61
     5
292
     1
282
     1
141
0.0
142
0.0
 63
   256
1001
ACAD_NAV_VCDISPLAY
1070
     3
  0
ENDTAB
  0
TABLE
  2
LTYPE
  5
5
330
0
100
AcDbSymbolTable
 70
    21
  0
LTYPE
  5
12
330
5
100
AcDbSymbolTableRecord
100
AcDbLinetypeTableRecord
  2
BYBLOCK
 70
     0
  3

 72
    65
 73
     0
 40
0.0
  0
LTYPE
  5
13
330
5
100
AcDbSymbolTableRecord
100
AcDbLinetypeTableRecord
  2
BYLAYER
 70
     0
  3

 72
    65
 73
     0
 40
0.0
  0
LTYPE
  5
14
330
5
100
AcDbSymbolTableRecord
100
AcDbLinetypeTableRecord
  2
CONTINUOUS
 70
     0
  3
Solid line
 72
    65
 73
     0
 40
0.0
  0
LTYPE
  5
25
330
5
100
AcDbSymbolTableRecord
100
AcDbLinetypeTableRecord
  2
PHANTOM2
 70
     0
  3
Phantom (.5x) ___ _ _ ___ _ _ ___ _ _ ___ _ _
 72
    65
 73
     6
 40
31.75
 49
15.875
 74
     0
 49
-3.174999999999998
 74
     0
 49
3.174999999999998
 74
     0
 49
-3.174999999999998
 74
     0
 49
3.174999999999998
 74
     0
 49
-3.174999999999998
 74
     0
  0
LTYPE
  5
27
330
5
100
AcDbSymbolTableRecord
100
AcDbLinetypeTableRecord
  2
DASHED2
 70
     0
  3
Dashed (.5x) _ _ _ _ _ _ _ _ _ _ _ _ _ _ _ _ _
 72
    65
 73
     2
 40
9.524999999999997
 49
6.349999999999998
 74
     0
 49
-3.174999999999998
 74
     0
  0
LTYPE
  5
E2
330
5
100
AcDbSymbolTableRecord
100
AcDbLinetypeTableRecord
  2
AM_ISO02W050
 70
     0
  3
__ __ __ __ __ __ __ __ __ __ __ __ __ __ __
 72
    65
 73
     2
 40
7.5
 49
6.0
 74
     0
 49
-1.5
 74
     0
  0
LTYPE
  5
E8
330
5
100
AcDbSymbolTableRecord
100
AcDbLinetypeTableRecord
  2
Amzigzag
 70
     0
  3
/\/-/\/-/\/-/\/-/\/-/\/
 72
    65
 73
     2
 40
11.0001
 49
0.0001
 74
     4
 75
   135
340
21
 46
0.04
 50
0.0
 44
0.0
 45
0.0
 49
-11.0
 74
     0
  0
LTYPE
  5
6BB
330
5
100
AcDbSymbolTableRecord
100
AcDbLinetypeTableRecord
  2
ACISOWELD
 70
     0
  3
_ _ _ _ _
 72
    65
 73
     2
 40
2.0
 49
2.0
 74
     0
 49
-1.0
 74
     0
  0
LTYPE
  5
6BC
330
5
100
AcDbSymbolTableRecord
100
AcDbLinetypeTableRecord
  2
ACISOTGB
 70
     0
  3
__ . . __ . .
 72
    65
 73
     6
 40
9.0
 49
4.0
 74
     0
 49
-1.0
 74
     0
 49
1.0
 74
     0
 49
-1.0
 74
     0
 49
1.0
 74
     0
 49
-1.0
 74
     0
  0
LTYPE
  5
6BD
330
5
100
AcDbSymbolTableRecord
100
AcDbLinetypeTableRecord
  2
ACISOTGL
 70
     0
  3
_ _ _ _ _
 72
    65
 73
     2
 40
3.0
 49
2.0
 74
     0
 49
-1.0
 74
     0
  0
LTYPE
  5
9BA8
330
5
100
AcDbSymbolTableRecord
100
AcDbLinetypeTableRecord
  2
AM_ISO08W050
 70
     0
  3
____ . ____ . ____ . ____ . ____ . ____ . ____
 72
    65
 73
     4
 40
18.0
 49
12.0
 74
     0
 49
-1.5
 74
     0
 49
3.0
 74
     0
 49
-1.5
 74
     0
  0
LTYPE
  5
9BA9
330
5
100
AcDbSymbolTableRecord
100
AcDbLinetypeTableRecord
  2
AM_ISO09W050
 70
     0
  3
_____ . . _____ . . _____ . . ____ .. ____
 72
    65
 73
     6
 40
22.5
 49
12.0
 74
     0
 49
-1.5
 74
     0
 49
3.0
 74
     0
 49
-1.5
 74
     0
 49
3.0
 74
     0
 49
-1.5
 74
     0
  0
LTYPE
  5
9BAA
330
5
100
AcDbSymbolTableRecord
100
AcDbLinetypeTableRecord
  2
Amconstr
 70
     0
  3
_______________________
 72
    65
 73
     2
 40
9999.0
 49
9999.0
 74
     0
 49
0.0
 74
     0
  0
LTYPE
  5
9BAB
330
5
100
AcDbSymbolTableRecord
100
AcDbLinetypeTableRecord
  2
AM_ISO08W050x2
 70
     0
  3
__ . __ . __ . __ . __ . __
 72
    65
 73
     4
 40
9.0
 49
6.0
 74
     0
 49
-0.75
 74
     0
 49
1.5
 74
     0
 49
-0.75
 74
     0
  0
LTYPE
  5
9BAC
330
5
100
AcDbSymbolTableRecord
100
AcDbLinetypeTableRecord
  2
AM_ISO02W050x2
 70
     0
  3
 _ _ _ _ _ _ _ _ _ _ _ _
 72
    65
 73
     2
 40
3.75
 49
3.0
 74
     0
 49
-0.75
 74
     0
  0
LTYPE
  5
34DFF
330
5
100
AcDbSymbolTableRecord
100
AcDbLinetypeTableRecord
  2
HIDDEN
 70
     0
  3
Hidden __ __ __ __ __ __ __ __ __ __ __ __ __ _
 72
    65
 73
     2
 40
9.524999999999999
 49
6.35
 74
     0
 49
-3.175
 74
     0
  0
LTYPE
  5
34E00
330
5
100
AcDbSymbolTableRecord
100
AcDbLinetypeTableRecord
  2
CENTER
 70
     0
  3
Center ____ _ ____ _ ____ _ ____ _ ____ _ ____
 72
    65
 73
     4
 40
50.8
 49
31.75
 74
     0
 49
-6.35
 74
     0
 49
6.35
 74
     0
 49
-6.35
 74
     0
  0
LTYPE
  5
36241
330
5
100
AcDbSymbolTableRecord
100
AcDbLinetypeTableRecord
  2
ACJISWELD
 70
     0
  3
_ _ _ _ _
 72
    65
 73
     2
 40
2.0
 49
2.0
 74
     0
 49
-1.0
 74
     0
  0
LTYPE
  5
36243
330
5
100
AcDbSymbolTableRecord
100
AcDbLinetypeTableRecord
  2
ACJISTGL
 70
     0
  3
_ _ _ _ _
 72
    65
 73
     2
 40
3.0
 49
2.0
 74
     0
 49
-1.0
 74
     0
  0
LTYPE
  5
36245
330
5
100
AcDbSymbolTableRecord
100
AcDbLinetypeTableRecord
  2
ACJISTGB
 70
     0
  3
__ . . __ . .
 72
    65
 73
     6
 40
9.0
 49
4.0
 74
     0
 49
-1.0
 74
     0
 49
1.0
 74
     0
 49
-1.0
 74
     0
 49
1.0
 74
     0
 49
-1.0
 74
     0
  0
LTYPE
  5
362A9
330
5
100
AcDbSymbolTableRecord
100
AcDbLinetypeTableRecord
  2
CENTER2
 70
     0
  3
Center (.5x) ___ _ ___ _ ___ _ ___ _ ___ _ ___
 72
    65
 73
     4
 40
1.125
 49
0.75
 74
     0
 49
-0.125
 74
     0
 49
0.125
 74
     0
 49
-0.125
 74
     0
  0
LTYPE
  5
362AA
330
5
100
AcDbSymbolTableRecord
100
AcDbLinetypeTableRecord
  2
HIDDEN2
 70
     0
  3
Hidden (.5x) _ _ _ _ _ _ _ _ _ _ _ _ _ _ _ _ _
 72
    65
 73
     2
 40
0.1875
 49
0.125
 74
     0
 49
-0.0625
 74
     0
  0
LTYPE
  5
36445
330
5
100
AcDbSymbolTableRecord
100
AcDbLinetypeTableRecord
  2
ラインタイプ-5
 70
     0
  3

 72
    65
 73
     2
 40
1.058074951171875
 49
0.352691650390625
 74
     0
 49
-0.70538330078125
 74
     0
  0
ENDTAB
  0
TABLE
  2
LAYER
  5
2
102
{ACAD_XDICTIONARY
360
A3D
102
}
330
0
100
AcDbSymbolTable
 70
    25
  0
LAYER
  5
E
102
{ACAD_XDICTIONARY
360
8DFA
102
}
330
2
100
AcDbSymbolTableRecord
100
AcDbLayerTableRecord
  2
0
 70
     0
 62
     7
  6
CONTINUOUS
370
    -3
390
5D
347
363C9
348
0
  0
LAYER
  5
73
330
2
100
AcDbSymbolTableRecord
100
AcDbLayerTableRecord
  2
Defpoints
 70
     1
 62
     7
  6
CONTINUOUS
290
     0
370
    -3
390
5D
347
363C9
348
0
  0
LAYER
  5
350A0
330
2
100
AcDbSymbolTableRecord
100
AcDbLayerTableRecord
  2
一般
 70
     0
 62
     7
  6
CONTINUOUS
370
    25
390
5D
347
363C9
348
0
  0
LAYER
  5
350A1
330
2
100
AcDbSymbolTableRecord
100
AcDbLayerTableRecord
  2
寸法
 70
     0
 62
     7
  6
CONTINUOUS
370
     9
390
5D
347
363C9
348
0
  0
LAYER
  5
350A3
330
2
100
AcDbSymbolTableRecord
100
AcDbLayerTableRecord
  2
文字
 70
     0
 62
     2
  6
CONTINUOUS
370
     9
390
5D
347
363C9
348
0
  0
LAYER
  5
36089
330
2
100
AcDbSymbolTableRecord
100
AcDbLayerTableRecord
  2
図枠
 70
     0
 62
     7
  6
CONTINUOUS
370
    50
390
5D
347
363C9
348
0
  0
LAYER
  5
3619D
330
2
100
AcDbSymbolTableRecord
100
AcDbLayerTableRecord
  2
AM_CL
 70
     0
 62
     1
  6
Amconstr
370
    25
390
5D
347
363C9
348
0
1001
AcAecLayerStandard
1000

1000

  0
LAYER
  5
362A4
330
2
100
AcDbSymbolTableRecord
100
AcDbLayerTableRecord
  2
AM_0
 70
     0
 62
     7
  6
CONTINUOUS
370
    50
390
5D
347
363C9
348
0
1001
AcAecLayerStandard
1000

1000

  0
LAYER
  5
36443
330
2
100
AcDbSymbolTableRecord
100
AcDbLayerTableRecord
  2
NJAA_JWWPoly2Tri
 70
     0
 62
     7
  6
CONTINUOUS
370
     9
390
5D
347
363C9
348
0
1001
ACCMTRANSPARENCY
1071
 33554687
1001
AcAecLayerStandard
1000

1000

  0
LAYER
  5
36D0A
330
2
100
AcDbSymbolTableRecord
100
AcDbLayerTableRecord
  2
AM_5
 70
     0
 62
     3
  6
CONTINUOUS
370
    25
390
5D
347
363C9
348
0
1001
AcAecLayerStandard
1000

1000

  0
LAYER
  5
36D22
102
{ACAD_XDICTIONARY
360
36D23
102
}
330
2
100
AcDbSymbolTableRecord
100
AcDbLayerTableRecord
  2
AM_1
 70
     0
 62
    41
  6
CONTINUOUS
370
    50
390
5D
347
363C9
348
0
  0
LAYER
  5
36D25
102
{ACAD_XDICTIONARY
360
36D26
102
}
330
2
100
AcDbSymbolTableRecord
100
AcDbLayerTableRecord
  2
AM_6
 70
     0
 62
     2
  6
CONTINUOUS
370
     9
390
5D
347
363C9
348
0
  0
LAYER
  5
36D28
102
{ACAD_XDICTIONARY
360
36D29
102
}
330
2
100
AcDbSymbolTableRecord
100
AcDbLayerTableRecord
  2
AM_8
 70
     0
 62
     1
  6
CONTINUOUS
370
     9
390
5D
347
363C9
348
0
  0
LAYER
  5
36D2E
102
{ACAD_XDICTIONARY
360
36D2F
102
}
330
2
100
AcDbSymbolTableRecord
100
AcDbLayerTableRecord
  2
AM_BOR
 70
     0
 62
     7
  6
CONTINUOUS
370
     9
390
5D
347
363C9
348
0
  0
LAYER
  5
36EB4
102
{ACAD_XDICTIONARY
360
36EB5
102
}
330
2
100
AcDbSymbolTableRecord
100
AcDbLayerTableRecord
  2
AM_2
 70
     0
 62
   121
  6
CONTINUOUS
370
     9
390
5D
347
363C9
348
0
  0
LAYER
  5
36EB7
102
{ACAD_XDICTIONARY
360
36EB8
102
}
330
2
100
AcDbSymbolTableRecord
100
AcDbLayerTableRecord
  2
CONT_M_2
 70
     0
 62
     2
  6
CONTINUOUS
370
    20
390
5D
347
363C9
348
0
  0
LAYER
  5
37568
330
2
100
AcDbSymbolTableRecord
100
AcDbLayerTableRecord
  2
AM_VIEWS
 70
     0
 62
     1
  6
CONTINUOUS
290
     0
370
    25
390
5D
347
363C9
348
0
1001
AcAecLayerStandard
1000

1000

  0
ENDTAB
  0
TABLE
  2
STYLE
  5
3
330
0
100
AcDbSymbolTable
 70
     9
  0
STYLE
  5
F
330
3
100
AcDbSymbolTableRecord
100
AcDbTextStyleTableRecord
  2
STANDARD
 70
     0
 40
0.0
 41
0.8299999999999998
 50
0.0
 71
     0
 42
48.0
  3
romans.shx
  4
extfont.shx
  0
STYLE
  5
21
330
3
100
AcDbSymbolTableRecord
100
AcDbTextStyleTableRecord
  2

 70
     1
 40
0.0
 41
1.0
 50
0.0
 71
     0
 42
2.5
  3
ltypeshp.shx
  4

  0
STYLE
  5
6BF
330
3
100
AcDbSymbolTableRecord
100
AcDbTextStyleTableRecord
  2
ACISOGDT
 70
     0
 40
0.0
 41
1.0
 50
0.0
 71
     0
 42
2.5
  3
amgdt.shx
  4

  0
STYLE
  5
34E75
330
3
100
AcDbSymbolTableRecord
100
AcDbTextStyleTableRecord
  2
ＭＳ ゴシック
 70
     0
 40
0.0
 41
1.0
 50
0.0
 71
     0
 42
0.2
  3

  4

1001
ACAD
1000
ＭＳ ゴシック
1071
        0
  0
STYLE
  5
3623F
330
3
100
AcDbSymbolTableRecord
100
AcDbTextStyleTableRecord
  2
ACJISGDT
 70
     0
 40
0.0
 41
1.0
 50
0.0
 71
     0
 42
2.5
  3
gmgdt.shx
  4
extfont2.shx
  0
STYLE
  5
36273
330
3
100
AcDbSymbolTableRecord
100
AcDbTextStyleTableRecord
  2

 70
     1
 40
0.0
 41
1.0
 50
0.0
 71
     0
 42
0.2
  3
genltshp.shx
  4

  0
STYLE
  5
36286
330
3
100
AcDbSymbolTableRecord
100
AcDbTextStyleTableRecord
  2
ACJISTS
 70
     0
 40
0.0
 41
1.0
 50
0.0
 71
     0
 42
2.5
  3
isocp.shx
  4
extfont2.shx
  0
STYLE
  5
36407
330
3
100
AcDbSymbolTableRecord
100
AcDbTextStyleTableRecord
  2

 70
     1
 40
0.0
 41
1.0
 50
0.0
 71
     0
 42
0.2
  3
genltshp.shx
  4

  0
STYLE
  5
36447
330
3
100
AcDbSymbolTableRecord
100
AcDbTextStyleTableRecord
  2
MS Gothic
 70
     0
 40
0.0
 41
1.0
 50
0.0
 71
     0
 42
0.2
  3

  4

1001
ACAD
1000
MS Gothic
1071
        0
  0
ENDTAB
  0
TABLE
  2
VIEW
  5
6
330
0
100
AcDbSymbolTable
 70
     6
  0
VIEW
  5
71A
330
6
100
AcDbSymbolTableRecord
100
AcDbViewTableRecord
  2
AM_VIEW1
 70
     0
 40
2756.802244039271
 10
-4875.0
 20
-985.9011569432677
 41
3900.0
 11
0.0
 21
0.0
 31
1.0
 12
0.0
 22
0.0
 32
0.0
 42
50.0
 43
0.0
 44
0.0
 50
0.0
 71
     0
281
     0
 72
     0
 73
     0
348
8D74
  0
VIEW
  5
71B
330
6
100
AcDbSymbolTableRecord
100
AcDbViewTableRecord
  2
AM_VIEW2
 70
     0
 40
2756.802244039271
 10
-975.0
 20
-985.9011569432677
 41
3900.0
 11
0.0
 21
0.0
 31
1.0
 12
0.0
 22
0.0
 32
0.0
 42
50.0
 43
0.0
 44
0.0
 50
0.0
 71
     0
281
     0
 72
     0
 73
     0
348
8D74
  0
VIEW
  5
71C
330
6
100
AcDbSymbolTableRecord
100
AcDbViewTableRecord
  2
AM_VIEW3
 70
     0
 40
2756.802244039271
 10
-4875.0
 20
-3469.098914475158
 41
3900.0
 11
0.0
 21
0.0
 31
1.0
 12
0.0
 22
0.0
 32
0.0
 42
50.0
 43
0.0
 44
0.0
 50
0.0
 71
     0
281
     0
 72
     0
 73
     0
348
8D74
  0
VIEW
  5
71D
330
6
100
AcDbSymbolTableRecord
100
AcDbViewTableRecord
  2
AM_VIEW4
 70
     0
 40
2756.802244039271
 10
-975.0
 20
-3469.098914475158
 41
3900.0
 11
0.0
 21
0.0
 31
1.0
 12
0.0
 22
0.0
 32
0.0
 42
50.0
 43
0.0
 44
0.0
 50
0.0
 71
     0
281
     0
 72
     0
 73
     0
348
8D74
  0
VIEW
  5
71E
330
6
100
AcDbSymbolTableRecord
100
AcDbViewTableRecord
  2
AM_VIEW5
 70
     0
 40
2756.802244039271
 10
-2925.0
 20
-2227.500035709213
 41
3900.0
 11
0.0
 21
0.0
 31
1.0
 12
0.0
 22
0.0
 32
0.0
 42
50.0
 43
0.0
 44
0.0
 50
0.0
 71
     0
281
     0
 72
     0
 73
     0
348
8D74
  0
VIEW
  5
71F
330
6
100
AcDbSymbolTableRecord
100
AcDbViewTableRecord
  2
AM_VIEW6
 70
     0
 40
5513.549352033659
 10
-2925.0
 20
-2227.500035709213
 41
7799.922000000002
 11
0.0
 21
0.0
 31
1.0
 12
0.0
 22
0.0
 32
0.0
 42
50.0
 43
0.0
 44
0.0
 50
0.0
 71
     0
281
     0
 72
     0
 73
     0
348
8D74
  0
ENDTAB
  0
TABLE
  2
UCS
  5
7
330
0
100
AcDbSymbolTable
 70
     0
  0
ENDTAB
  0
TABLE
  2
APPID
  5
9
330
0
100
AcDbSymbolTable
 70
    98
  0
APPID
  5
10
330
9
100
AcDbSymbolTableRecord
100
AcDbRegAppTableRecord
  2
ACAD
 70
     0
  0
APPID
  5
C2
330
9
100
AcDbSymbolTableRecord
100
AcDbRegAppTableRecord
  2
MCAD_NO_VIS
 70
     0
  0
APPID
  5
C3
330
9
100
AcDbSymbolTableRecord
100
AcDbRegAppTableRecord
  2
ACAD_TEMP_GRAPHIC
 70
     0
  0
APPID
  5
D6
330
9
100
AcDbSymbolTableRecord
100
AcDbRegAppTableRecord
  2
ACATTRIBSERVICES
 70
     0
  0
APPID
  5
468
330
9
100
AcDbSymbolTableRecord
100
AcDbRegAppTableRecord
  2
GENIUS_GENDIMSH_14
 70
     0
  0
APPID
  5
714
330
9
100
AcDbSymbolTableRecord
100
AcDbRegAppTableRecord
  2
GENIUS_GENOLIS_13
 70
     0
  0
APPID
  5
715
330
9
100
AcDbSymbolTableRecord
100
AcDbRegAppTableRecord
  2
GENIUS_GENOENT_13
 70
     0
  0
APPID
  5
716
330
9
100
AcDbSymbolTableRecord
100
AcDbRegAppTableRecord
  2
GENIUS_GENOBJ-N-TIT_13
 70
     0
  0
APPID
  5
717
330
9
100
AcDbSymbolTableRecord
100
AcDbRegAppTableRecord
  2
GENIUS_GENODEF_13
 70
     0
  0
APPID
  5
718
330
9
100
AcDbSymbolTableRecord
100
AcDbRegAppTableRecord
  2
GENIUS_GENTITLE_13
 70
     0
  0
APPID
  5
719
330
9
100
AcDbSymbolTableRecord
100
AcDbRegAppTableRecord
  2
GENIUS_GENOREF_13
 70
     0
  0
APPID
  5
720
330
9
100
AcDbSymbolTableRecord
100
AcDbRegAppTableRecord
  2
GENIUS_GENSCREG_15
 70
     0
  0
APPID
  5
721
330
9
100
AcDbSymbolTableRecord
100
AcDbRegAppTableRecord
  2
GENIUS_GENOBJ-N-SDF_13
 70
     0
  0
APPID
  5
EF4
330
9
100
AcDbSymbolTableRecord
100
AcDbRegAppTableRecord
  2
GENIUS_GENOBJ-N-FIL_13
 70
     0
  0
APPID
  5
19C4
330
9
100
AcDbSymbolTableRecord
100
AcDbRegAppTableRecord
  2
GENIUS_GENFIL_13
 70
     0
  0
APPID
  5
19C5
330
9
100
AcDbSymbolTableRecord
100
AcDbRegAppTableRecord
  2
GENIUS_GENOBJ-N-CHA_13
 70
     0
  0
APPID
  5
19C6
330
9
100
AcDbSymbolTableRecord
100
AcDbRegAppTableRecord
  2
GENIUS_GENOBJ-N-HTC_13
 70
     0
  0
APPID
  5
19C7
330
9
100
AcDbSymbolTableRecord
100
AcDbRegAppTableRecord
  2
GENIUS_GENHATCH_13
 70
     0
  0
APPID
  5
19C8
330
9
100
AcDbSymbolTableRecord
100
AcDbRegAppTableRecord
  2
GENIUS_GENOBJ-N-CEN_13
 70
     0
  0
APPID
  5
1EB8
330
9
100
AcDbSymbolTableRecord
100
AcDbRegAppTableRecord
  2
GENIUS_GENDTOL_13
 70
     0
  0
APPID
  5
3B9F
330
9
100
AcDbSymbolTableRecord
100
AcDbRegAppTableRecord
  2
GENIUS_GENOBJ-N-CRS_13
 70
     0
  0
APPID
  5
85B4
330
9
100
AcDbSymbolTableRecord
100
AcDbRegAppTableRecord
  2
GENIUS_GENREC_14
 70
     0
  0
APPID
  5
85B5
330
9
100
AcDbSymbolTableRecord
100
AcDbRegAppTableRecord
  2
GENIUS_GENOBJ-N-REC_13
 70
     0
  0
APPID
  5
8DC3
330
9
100
AcDbSymbolTableRecord
100
AcDbRegAppTableRecord
  2
DESIGNERASSEMBLIES
 70
     0
  0
APPID
  5
8DDC
330
9
100
AcDbSymbolTableRecord
100
AcDbRegAppTableRecord
  2
ACAD_NAV_VCDISPLAY
 70
     0
  0
APPID
  5
8DDD
330
9
100
AcDbSymbolTableRecord
100
AcDbRegAppTableRecord
  2
ACAD_EXEMPT_FROM_CAD_STANDARDS
 70
     0
  0
APPID
  5
8E76
330
9
100
AcDbSymbolTableRecord
100
AcDbRegAppTableRecord
  2
ACAD_MLEADERVER
 70
     0
  0
APPID
  5
8FF1
330
9
100
AcDbSymbolTableRecord
100
AcDbRegAppTableRecord
  2
ACAD_PSEXT
 70
     0
  0
APPID
  5
9BA4
330
9
100
AcDbSymbolTableRecord
100
AcDbRegAppTableRecord
  2
ACAD_DSTYLE_DIMBREAK
 70
     0
  0
APPID
  5
9BA5
330
9
100
AcDbSymbolTableRecord
100
AcDbRegAppTableRecord
  2
ACAD_DSTYLE_DIMJAG
 70
     0
  0
APPID
  5
9D0F
330
9
100
AcDbSymbolTableRecord
100
AcDbRegAppTableRecord
  2
ACAD_DSTYLE_DIMINSPECT
 70
     0
  0
APPID
  5
A049
330
9
100
AcDbSymbolTableRecord
100
AcDbRegAppTableRecord
  2
GENIUS_GENCEN_19
 70
     0
  0
APPID
  5
B290
330
9
100
AcDbSymbolTableRecord
100
AcDbRegAppTableRecord
  2
GradientColor1ACI
 70
     0
  0
APPID
  5
B291
330
9
100
AcDbSymbolTableRecord
100
AcDbRegAppTableRecord
  2
GradientColor2ACI
 70
     0
  0
APPID
  5
119DC
330
9
100
AcDbSymbolTableRecord
100
AcDbRegAppTableRecord
  2
AcAecLayerStandard
 70
     0
  0
APPID
  5
2338C
330
9
100
AcDbSymbolTableRecord
100
AcDbRegAppTableRecord
  2
ACAD_DSTYLE_DIMTALN
 70
     0
  0
APPID
  5
279A1
330
9
100
AcDbSymbolTableRecord
100
AcDbRegAppTableRecord
  2
GENIUS_GENCRS_20
 70
     0
  0
APPID
  5
31A80
330
9
100
AcDbSymbolTableRecord
100
AcDbRegAppTableRecord
  2
GENIUS_GENBH_13
 70
     0
  0
APPID
  5
31A81
330
9
100
AcDbSymbolTableRecord
100
AcDbRegAppTableRecord
  2
GENIUS_GENOBJ-NBEHI-BHF_13
 70
     0
  0
APPID
  5
31A82
330
9
100
AcDbSymbolTableRecord
100
AcDbRegAppTableRecord
  2
GENIUS_GENOBJ-NBEHI-BHB_13
 70
     0
  0
APPID
  5
34E77
330
9
100
AcDbSymbolTableRecord
100
AcDbRegAppTableRecord
  2
ACCMTRANSPARENCY
 70
     0
  0
APPID
  5
36205
330
9
100
AcDbSymbolTableRecord
100
AcDbRegAppTableRecord
  2
HCCAD_PAPERINIT
 70
     0
  0
APPID
  5
36206
330
9
100
AcDbSymbolTableRecord
100
AcDbRegAppTableRecord
  2
HCCAD_TITLETABLE
 70
     0
  0
APPID
  5
36207
330
9
100
AcDbSymbolTableRecord
100
AcDbRegAppTableRecord
  2
HCCAD_EXPANDTABLE
 70
     0
  0
APPID
  5
36208
330
9
100
AcDbSymbolTableRecord
100
AcDbRegAppTableRecord
  2
HCCAD_CODETABLE
 70
     0
  0
APPID
  5
36209
330
9
100
AcDbSymbolTableRecord
100
AcDbRegAppTableRecord
  2
HCCAD_FEATURETABLE
 70
     0
  0
APPID
  5
3620A
330
9
100
AcDbSymbolTableRecord
100
AcDbRegAppTableRecord
  2
HCCAD_COMMONTABLE
 70
     0
  0
APPID
  5
3620B
330
9
100
AcDbSymbolTableRecord
100
AcDbRegAppTableRecord
  2
HCCAD_INVENT
 70
     0
  0
APPID
  5
3620C
330
9
100
AcDbSymbolTableRecord
100
AcDbRegAppTableRecord
  2
HCCAD_INVENT_EXTEND
 70
     0
  0
APPID
  5
3620D
330
9
100
AcDbSymbolTableRecord
100
AcDbRegAppTableRecord
  2
HC_BOMRECORDER
 70
     0
  0
APPID
  5
3620E
330
9
100
AcDbSymbolTableRecord
100
AcDbRegAppTableRecord
  2
HC_DTimaperSlope
 70
     0
  0
APPID
  5
3620F
330
9
100
AcDbSymbolTableRecord
100
AcDbRegAppTableRecord
  2
HCCAD_DIMBASEA
 70
     0
  0
APPID
  5
36210
330
9
100
AcDbSymbolTableRecord
100
AcDbRegAppTableRecord
  2
HCCAD_DIMLEADERUA
 70
     0
  0
APPID
  5
36211
330
9
100
AcDbSymbolTableRecord
100
AcDbRegAppTableRecord
  2
HCCAD_DimRoughA
 70
     0
  0
APPID
  5
36212
330
9
100
AcDbSymbolTableRecord
100
AcDbRegAppTableRecord
  2
HCCAD_DIMBGF
 70
     0
  0
APPID
  5
36213
330
9
100
AcDbSymbolTableRecord
100
AcDbRegAppTableRecord
  2
HCCAD_DIMDAOJIAO
 70
     0
  0
APPID
  5
36214
330
9
100
AcDbSymbolTableRecord
100
AcDbRegAppTableRecord
  2
HCCAD_DIMSEAL
 70
     0
  0
APPID
  5
36215
330
9
100
AcDbSymbolTableRecord
100
AcDbRegAppTableRecord
  2
HC_XWGC
 70
     0
  0
APPID
  5
36216
330
9
100
AcDbSymbolTableRecord
100
AcDbRegAppTableRecord
  2
HC_XWGC_2
 70
     0
  0
APPID
  5
36217
330
9
100
AcDbSymbolTableRecord
100
AcDbRegAppTableRecord
  2
HC_XWGC_3
 70
     0
  0
APPID
  5
36218
330
9
100
AcDbSymbolTableRecord
100
AcDbRegAppTableRecord
  2
HCCAD_DIMCENTRALHOLE
 70
     0
  0
APPID
  5
36219
330
9
100
AcDbSymbolTableRecord
100
AcDbRegAppTableRecord
  2
HC_XDATA_ORDER
 70
     0
  0
APPID
  5
3621A
330
9
100
AcDbSymbolTableRecord
100
AcDbRegAppTableRecord
  2
HC_XDATA_CODE
 70
     0
  0
APPID
  5
3621B
330
9
100
AcDbSymbolTableRecord
100
AcDbRegAppTableRecord
  2
HC_XDATA_VTYPE
 70
     0
  0
APPID
  5
3621C
330
9
100
AcDbSymbolTableRecord
100
AcDbRegAppTableRecord
  2
HC_XDATA_ALIGN
 70
     0
  0
APPID
  5
3621D
330
9
100
AcDbSymbolTableRecord
100
AcDbRegAppTableRecord
  2
HC_XDATA_ROWDOWITH
 70
     0
  0
APPID
  5
3621E
330
9
100
AcDbSymbolTableRecord
100
AcDbRegAppTableRecord
  2
HC_XDATA_ORIENTION
 70
     0
  0
APPID
  5
3621F
330
9
100
AcDbSymbolTableRecord
100
AcDbRegAppTableRecord
  2
HC_XDATA_EDITABLE
 70
     0
  0
APPID
  5
36220
330
9
100
AcDbSymbolTableRecord
100
AcDbRegAppTableRecord
  2
HC_XDATA_EXPRE
 70
     0
  0
APPID
  5
36221
330
9
100
AcDbSymbolTableRecord
100
AcDbRegAppTableRecord
  2
HC_SUPERPART
 70
     0
  0
APPID
  5
36222
330
9
100
AcDbSymbolTableRecord
100
AcDbRegAppTableRecord
  2
HC_SP4BLOCK
 70
     0
  0
APPID
  5
36223
330
9
100
AcDbSymbolTableRecord
100
AcDbRegAppTableRecord
  2
HC_XDATA_SPRING
 70
     0
  0
APPID
  5
36224
330
9
100
AcDbSymbolTableRecord
100
AcDbRegAppTableRecord
  2
HC_LOCAL_VIEW
 70
     0
  0
APPID
  5
36225
330
9
100
AcDbSymbolTableRecord
100
AcDbRegAppTableRecord
  2
HCCAD_FRAME
 70
     0
  0
APPID
  5
36226
330
9
100
AcDbSymbolTableRecord
100
AcDbRegAppTableRecord
  2
GENIUS_GENOBJ-N-ZOO_13
 70
     0
  0
APPID
  5
36227
330
9
100
AcDbSymbolTableRecord
100
AcDbRegAppTableRecord
  2
GENIUS_GENSYMENT_13
 70
     0
  0
APPID
  5
36228
330
9
100
AcDbSymbolTableRecord
100
AcDbRegAppTableRecord
  2
GENIUS_GENSCSYM_13
 70
     0
  0
APPID
  5
36229
330
9
100
AcDbSymbolTableRecord
100
AcDbRegAppTableRecord
  2
GENIUS_GENOBJ-N-REV_13
 70
     0
  0
APPID
  5
3622A
330
9
100
AcDbSymbolTableRecord
100
AcDbRegAppTableRecord
  2
GENIUS_GENOBJ-N-RSSYM_13
 70
     0
  0
APPID
  5
3622B
330
9
100
AcDbSymbolTableRecord
100
AcDbRegAppTableRecord
  2
GENIUS_GENREV_15
 70
     0
  0
APPID
  5
3622C
330
9
100
AcDbSymbolTableRecord
100
AcDbRegAppTableRecord
  2
HRA
 70
     0
  0
APPID
  5
3622D
330
9
100
AcDbSymbolTableRecord
100
AcDbRegAppTableRecord
  2
HTIT
 70
     0
  0
APPID
  5
3622E
330
9
100
AcDbSymbolTableRecord
100
AcDbRegAppTableRecord
  2
GENIUS_GENZOO_17
 70
     0
  0
APPID
  5
3622F
330
9
100
AcDbSymbolTableRecord
100
AcDbRegAppTableRecord
  2
GENIUS_GENOBJ-N-CRC_13
 70
     0
  0
APPID
  5
36230
330
9
100
AcDbSymbolTableRecord
100
AcDbRegAppTableRecord
  2
GENIUS_GENCRC_14
 70
     0
  0
APPID
  5
36231
330
9
100
AcDbSymbolTableRecord
100
AcDbRegAppTableRecord
  2
GENIUS_GENDIM_13
 70
     0
  0
APPID
  5
36232
330
9
100
AcDbSymbolTableRecord
100
AcDbRegAppTableRecord
  2
GENIUS_GENOBJ-N-DIM_13
 70
     0
  0
APPID
  5
36233
330
9
100
AcDbSymbolTableRecord
100
AcDbRegAppTableRecord
  2
GENIUS_GENOBJ-N-DIMLI_13
 70
     0
  0
APPID
  5
36234
330
9
100
AcDbSymbolTableRecord
100
AcDbRegAppTableRecord
  2
GENIUS_GENOBJ-N-FITL_13
 70
     0
  0
APPID
  5
36235
330
9
100
AcDbSymbolTableRecord
100
AcDbRegAppTableRecord
  2
GENIUS_GENFITL_13
 70
     0
  0
APPID
  5
36236
330
9
100
AcDbSymbolTableRecord
100
AcDbRegAppTableRecord
  2
GENLAYCOLOR
 70
     0
  0
APPID
  5
36381
330
9
100
AcDbSymbolTableRecord
100
AcDbRegAppTableRecord
  2
ACAD_DSTYLE_DIMARC_LENGTH_SYMBOL
 70
     0
  0
APPID
  5
36382
330
9
100
AcDbSymbolTableRecord
100
AcDbRegAppTableRecord
  2
ACAD_DSTYLE_DIM_LINETYPE
 70
     0
  0
APPID
  5
36383
330
9
100
AcDbSymbolTableRecord
100
AcDbRegAppTableRecord
  2
ACAD_DSTYLE_DIM_EXT1_LINETYPE
 70
     0
  0
APPID
  5
36384
330
9
100
AcDbSymbolTableRecord
100
AcDbRegAppTableRecord
  2
ACAD_DSTYLE_DIM_EXT2_LINETYPE
 70
     0
  0
APPID
  5
3644D
330
9
100
AcDbSymbolTableRecord
100
AcDbRegAppTableRecord
  2
ACAD_SPLINE_DATA
 70
     0
  0
APPID
  5
3644E
330
9
100
AcDbSymbolTableRecord
100
AcDbRegAppTableRecord
  2
ACAD_SPLINE_DATA2
 70
     0
  0
APPID
  5
36D3E
330
9
100
AcDbSymbolTableRecord
100
AcDbRegAppTableRecord
  2
PLOTTRANSPARENCY
 70
     0
  0
ENDTAB
  0
TABLE
  2
DIMSTYLE
  5
A
330
0
100
AcDbSymbolTable
 70
    20
100
AcDbDimStyleTable
  0
DIMSTYLE
105
6C0
330
A
100
AcDbSymbolTableRecord
100
AcDbDimStyleTableRecord
  2
AM_ISO
 70
     0
  4
"
 41
1.6
 42
1.0
 43
7.0
 44
1.0
 47
0.1
 48
0.1
 73
     0
 74
     0
 77
     1
 78
     8
140
2.5
141
0.0
143
0.0393701
146
0.71
147
0.625
172
     1
176
   256
177
   256
271
     3
178
     2
271
     3
272
     3
283
     0
284
     8
289
     2
340
F
371
    -1
372
    -1
  0
DIMSTYLE
105
6C1
330
A
100
AcDbSymbolTableRecord
100
AcDbDimStyleTableRecord
  2
AM_ISO$3
 70
     0
  4
"
 41
1.6
 42
1.0
 43
7.0
 44
1.0
 47
0.1
 48
0.1
 73
     0
 74
     0
 77
     1
 78
     8
140
2.5
141
0.0
143
0.0393701
146
0.71
147
0.625
172
     1
176
   256
177
   256
271
     3
178
     2
271
     3
272
     3
283
     0
284
     8
289
     2
340
F
371
    -1
372
    -1
  0
DIMSTYLE
105
6C2
330
A
100
AcDbSymbolTableRecord
100
AcDbDimStyleTableRecord
  2
AM_ISO$4
 70
     0
  4
"
 41
1.6
 42
1.0
 43
7.0
 44
1.0
 47
0.1
 48
0.1
 73
     0
 74
     0
 77
     1
 78
     8
140
2.5
141
0.0
143
0.0393701
146
0.71
147
0.625
172
     1
176
   256
177
   256
271
     3
178
     2
271
     3
272
     3
283
     0
284
     8
289
     2
340
F
371
    -1
372
    -1
  0
DIMSTYLE
105
6C3
330
A
100
AcDbSymbolTableRecord
100
AcDbDimStyleTableRecord
  2
AM_ISO$6
 70
     0
  4
"
 41
1.6
 42
1.0
 43
7.0
 44
1.0
 47
0.1
 48
0.1
 73
     0
 74
     0
 78
     8
140
2.5
141
0.0
143
0.0393701
146
0.71
147
0.625
172
     1
176
   256
177
   256
271
     3
178
     2
271
     3
272
     3
283
     0
284
     8
289
     2
340
F
371
    -1
372
    -1
  0
DIMSTYLE
105
6C4
330
A
100
AcDbSymbolTableRecord
100
AcDbDimStyleTableRecord
  2
AM_ISO$7
 70
     0
  4
"
 41
1.6
 42
1.0
 43
7.0
 44
1.0
 47
0.1
 48
0.1
 73
     0
 74
     0
 77
     1
 78
     8
140
2.5
141
0.0
143
0.0393701
146
0.71
147
0.625
172
     1
176
   256
177
   256
271
     3
178
     2
271
     3
272
     3
283
     0
284
     8
289
     2
340
F
371
    -1
372
    -1
  0
DIMSTYLE
105
6C5
330
A
100
AcDbSymbolTableRecord
100
AcDbDimStyleTableRecord
  2
AM_ISO$SF
 70
     0
  4
"
 41
2.5
 42
1.0
 43
10.0
 44
1.0
 47
0.1
 48
0.1
 73
     0
 74
     0
 75
     1
 76
     1
 77
     1
 78
     8
 79
     2
140
3.5
141
0.0
143
0.0393701
146
0.71
147
1.5
172
     1
176
   256
177
   256
271
     2
178
     2
271
     2
272
     3
274
     4
283
     0
284
     8
340
F
371
    -1
372
    -1
  0
DIMSTYLE
105
6C6
330
A
100
AcDbSymbolTableRecord
100
AcDbDimStyleTableRecord
  2
AM_ISO$SH
 70
     0
  4
"
 41
2.5
 42
1.0
 43
10.0
 44
1.0
 47
0.1
 48
0.1
 73
     0
 74
     0
 75
     1
 76
     1
 77
     1
 78
     8
 79
     2
140
3.5
141
0.0
143
0.0393701
144
2.0
146
0.71
147
1.5
172
     1
173
     1
176
   256
177
   256
271
     2
178
     2
271
     2
272
     3
274
     4
283
     0
284
     8
340
F
343
101
371
    -1
372
    -1
  0
DIMSTYLE
105
6C7
330
A
100
AcDbSymbolTableRecord
100
AcDbDimStyleTableRecord
  2
AM_ISO$2
 70
     0
  4
"
 41
1.6
 42
1.0
 43
7.0
 44
1.0
 47
0.1
 48
0.1
 73
     0
 74
     0
 77
     1
 78
     8
140
2.5
141
0.0
143
0.0393701
146
0.71
147
0.625
172
     1
176
   256
177
   256
271
     3
178
     2
271
     3
272
     3
283
     0
284
     8
289
     2
340
F
371
    -1
372
    -1
  0
DIMSTYLE
105
6C8
330
A
100
AcDbSymbolTableRecord
100
AcDbDimStyleTableRecord
  2
AM_ISO$0
 70
     0
  4
"
 41
1.6
 42
1.0
 43
7.0
 44
1.0
 47
0.1
 48
0.1
 73
     0
 74
     0
 77
     1
 78
     8
140
2.5
141
0.0
143
0.0393701
146
0.71
147
0.625
172
     1
176
   256
177
   256
271
     3
178
     2
271
     3
272
     3
283
     0
284
     8
289
     2
340
F
371
    -1
372
    -1
  0
DIMSTYLE
105
881
330
A
100
AcDbSymbolTableRecord
100
AcDbDimStyleTableRecord
  2
Standard
 70
     0
178
     0
340
F
  0
DIMSTYLE
105
31216
330
A
100
AcDbSymbolTableRecord
100
AcDbDimStyleTableRecord
  2
SANKYO
 70
     0
  4
"
 41
1.6
 42
1.0
 43
7.0
 44
1.0
 47
0.1
 48
0.1
 73
     0
 74
     0
 77
     1
 78
     8
140
3.2
141
0.0
143
0.0393701
146
0.71
147
0.625
172
     1
176
   256
177
   256
271
     3
178
   256
271
     3
272
     3
283
     0
284
     8
289
     2
340
F
341
30A
342
30A
371
    -1
372
    -1
  0
DIMSTYLE
105
31217
330
A
100
AcDbSymbolTableRecord
100
AcDbDimStyleTableRecord
  2
SANKYO$0
 70
     0
  4
"
 41
1.6
 42
1.0
 43
7.0
 44
1.0
 47
0.1
 48
0.1
 73
     0
 74
     0
 77
     1
 78
     8
140
3.2
141
0.0
143
0.0393701
146
0.71
147
0.625
172
     1
176
   256
177
   256
271
     3
178
   256
271
     3
272
     3
283
     0
284
     8
289
     2
340
F
341
30A
342
30A
371
    -1
372
    -1
  0
DIMSTYLE
105
34E76
330
A
100
AcDbSymbolTableRecord
100
AcDbDimStyleTableRecord
  2
DISPLAY2
 70
     0
  3
<>
  4
[]
 41
0.99993896484375
 42
2.999999988824129
 43
10.16000000946224
 44
0.4999999981373548
 73
     0
 74
     0
 77
     1
 78
     8
140
2.437060546875
141
0.0
143
0.0393700787401575
146
0.8
147
0.0499999998137355
171
     3
172
     1
174
     1
178
     0
179
     2
271
     1
272
     1
273
     4
276
     2
284
     8
285
     8
286
     8
289
     0
340
34E75
341
34E69
342
34E60
343
34E60
344
34E60
  0
DIMSTYLE
105
36275
330
A
100
AcDbSymbolTableRecord
100
AcDbDimStyleTableRecord
  2
AM_JIS
 70
     0
  4
"
 41
2.5
 42
1.0
 43
10.0
 44
1.0
 47
0.1
 48
0.1
 90
        1
 73
     0
 74
     0
 77
     3
 78
     8
 79
     2
140
3.5
141
0.0
143
0.0393701
146
0.71
147
1.5
172
     1
176
   256
177
   256
271
     2
178
     2
271
     2
272
     3
274
     4
283
     0
284
     8
340
F
341
3624A
342
3624A
343
3624A
344
3624A
371
    -1
372
    -1
345
12
346
12
347
12
1001
ACAD_DSTYLE_DIMJAG
1070
   388
1040
1.5
1001
ACAD_DSTYLE_DIMBREAK
1070
   391
1040
3.75
  0
DIMSTYLE
105
36278
330
A
100
AcDbSymbolTableRecord
100
AcDbDimStyleTableRecord
  2
AM_JIS$3
 70
     0
  4
"
 41
2.5
 42
1.0
 43
10.0
 44
1.0
 47
0.1
 48
0.1
 90
        1
 73
     0
 77
     3
 78
     8
 79
     2
140
3.5
141
0.0
143
0.0393701
146
0.71
147
1.5
176
   256
177
   256
271
     2
178
     2
271
     2
272
     3
274
     4
283
     0
284
     8
288
     1
289
     0
340
F
341
3624A
342
3624A
343
3624A
344
3624A
371
    -1
372
    -1
345
12
346
12
347
12
1001
ACAD_DSTYLE_DIMBREAK
1070
   391
1040
3.75
1001
ACAD_DSTYLE_DIMJAG
1070
   388
1040
1.5
  0
DIMSTYLE
105
36279
330
A
100
AcDbSymbolTableRecord
100
AcDbDimStyleTableRecord
  2
AM_JIS$4
 70
     0
  4
"
 41
2.5
 42
1.0
 43
10.0
 44
1.0
 47
0.1
 48
0.1
 90
        1
 73
     0
 74
     0
 77
     3
 78
     8
 79
     2
140
3.5
141
0.0
143
0.0393701
146
0.71
147
1.5
172
     1
176
   256
177
   256
271
     2
178
     2
271
     2
272
     3
274
     4
283
     0
284
     8
340
F
341
3624A
342
3624A
343
3624A
344
3624A
371
    -1
372
    -1
345
12
346
12
347
12
1001
ACAD_DSTYLE_DIMBREAK
1070
   391
1040
3.75
1001
ACAD_DSTYLE_DIMJAG
1070
   388
1040
1.5
  0
DIMSTYLE
105
3627A
330
A
100
AcDbSymbolTableRecord
100
AcDbDimStyleTableRecord
  2
AM_JIS$6
 70
     0
  4
"
 41
2.5
 42
1.0
 43
10.0
 44
1.0
 47
0.1
 48
0.1
 90
        1
 73
     0
 74
     0
 78
     8
 79
     2
140
3.5
141
0.0
143
0.0393701
146
0.71
147
1.5
172
     1
176
   256
177
   256
271
     2
178
     2
271
     2
272
     3
274
     4
283
     0
284
     8
340
F
341
3624A
342
3624A
343
3624A
344
3624A
371
    -1
372
    -1
345
12
346
12
347
12
1001
ACAD_DSTYLE_DIMBREAK
1070
   391
1040
3.75
1001
ACAD_DSTYLE_DIMJAG
1070
   388
1040
1.5
  0
DIMSTYLE
105
3627B
330
A
100
AcDbSymbolTableRecord
100
AcDbDimStyleTableRecord
  2
AM_JIS$7
 70
     0
  4
"
 41
2.5
 42
1.0
 43
10.0
 44
1.0
 47
0.1
 48
0.1
 90
        1
 73
     0
 74
     0
 77
     3
 78
     8
 79
     2
140
3.5
141
0.0
143
0.0393701
146
0.71
147
1.5
172
     1
176
   256
177
   256
271
     2
178
     2
271
     2
272
     3
274
     4
283
     0
284
     8
340
F
341
3624A
342
3624A
343
3624A
344
3624A
371
    -1
372
    -1
345
12
346
12
347
12
1001
ACAD_DSTYLE_DIMBREAK
1070
   391
1040
3.75
1001
ACAD_DSTYLE_DIMJAG
1070
   388
1040
1.5
  0
DIMSTYLE
105
3627C
330
A
100
AcDbSymbolTableRecord
100
AcDbDimStyleTableRecord
  2
AM_JIS$SF
 70
     0
  4
"
 41
2.5
 42
1.0
 43
10.0
 44
1.0
 47
0.1
 48
0.1
 90
        1
 73
     0
 74
     0
 75
     1
 76
     1
 77
     3
 78
     8
 79
     2
140
3.5
141
0.0
143
0.0393701
146
0.71
147
1.5
172
     1
176
   256
177
   256
271
     2
178
     2
271
     2
272
     3
274
     4
283
     0
284
     8
340
F
341
3624A
342
3624A
343
3624A
344
3624A
371
    -1
372
    -1
345
12
346
12
347
12
1001
ACAD_DSTYLE_DIMBREAK
1070
   391
1040
3.75
1001
ACAD_DSTYLE_DIMJAG
1070
   388
1040
1.5
  0
DIMSTYLE
105
3627D
330
A
100
AcDbSymbolTableRecord
100
AcDbDimStyleTableRecord
  2
AM_JIS$SH
 70
     0
  4
"
 41
2.5
 42
1.0
 43
10.0
 44
1.0
 47
0.1
 48
0.1
 90
        1
 73
     0
 74
     0
 75
     1
 76
     1
 77
     3
 78
     8
 79
     2
140
3.5
141
0.0
143
0.0393701
144
2.0
146
0.71
147
1.5
172
     1
173
     1
176
   256
177
   256
271
     2
178
     2
271
     2
272
     3
274
     4
283
     0
284
     8
340
F
341
3624A
342
3624A
343
3624A
344
3624A
371
    -1
372
    -1
345
12
346
12
347
12
1001
ACAD_DSTYLE_DIMBREAK
1070
   391
1040
3.75
1001
ACAD_DSTYLE_DIMJAG
1070
   388
1040
1.5
  0
ENDTAB
  0
TABLE
  2
BLOCK_RECORD
  5
1
330
0
100
AcDbSymbolTable
 70
   311
  0
BLOCK_RECORD
  5
18
102
{ACAD_XDICTIONARY
360
108
102
}
330
1
100
AcDbSymbolTableRecord
100
AcDbBlockTableRecord
  2
*MODEL_SPACE
340
363CA
 70
     0
280
     1
281
     0
  0
BLOCK_RECORD
  5
15
330
1
100
AcDbSymbolTableRecord
100
AcDbBlockTableRecord
  2
*PAPER_SPACE
340
363CB
 70
     0
280
     1
281
     0
  0
BLOCK_RECORD
  5
101
330
1
100
AcDbSymbolTableRecord
100
AcDbBlockTableRecord
  2
GENAXEH
340
0
 70
     0
280
     1
281
     0
  0
BLOCK_RECORD
  5
30A
330
1
100
AcDbSymbolTableRecord
100
AcDbBlockTableRecord
  2
_Open
340
0
310
2800000020000000200000000100080000000000000400000000000000000000000000000000000000000000000080000080000000808000800000008000800080800000C0C0C000C0DCC000F0CAA6000020400000206000002080000020A0000020C0000020E00000400000004020000040400000406000004080000040A0
310
000040C0000040E00000600000006020000060400000606000006080000060A0000060C0000060E00000800000008020000080400000806000008080000080A0000080C0000080E00000A0000000A0200000A0400000A0600000A0800000A0A00000A0C00000A0E00000C0000000C0200000C0400000C0600000C0800000C0
310
A00000C0C00000C0E00000E0000000E0200000E0400000E0600000E0800000E0A00000E0C00000E0E00040000000400020004000400040006000400080004000A0004000C0004000E00040200000402020004020400040206000402080004020A0004020C0004020E000404000004040200040404000404060004040800040
310
40A0004040C0004040E00040600000406020004060400040606000406080004060A0004060C0004060E00040800000408020004080400040806000408080004080A0004080C0004080E00040A0000040A0200040A0400040A0600040A0800040A0A00040A0C00040A0E00040C0000040C0200040C0400040C0600040C08000
310
40C0A00040C0C00040C0E00040E0000040E0200040E0400040E0600040E0800040E0A00040E0C00040E0E00080000000800020008000400080006000800080008000A0008000C0008000E00080200000802020008020400080206000802080008020A0008020C0008020E00080400000804020008040400080406000804080
310
008040A0008040C0008040E00080600000806020008060400080606000806080008060A0008060C0008060E00080800000808020008080400080806000808080008080A0008080C0008080E00080A0000080A0200080A0400080A0600080A0800080A0A00080A0C00080A0E00080C0000080C0200080C0400080C0600080C0
310
800080C0A00080C0C00080C0E00080E0000080E0200080E0400080E0600080E0800080E0A00080E0C00080E0E000C0000000C0002000C0004000C0006000C0008000C000A000C000C000C000E000C0200000C0202000C0204000C0206000C0208000C020A000C020C000C020E000C0400000C0402000C0404000C0406000C0
310
408000C040A000C040C000C040E000C0600000C0602000C0604000C0606000C0608000C060A000C060C000C060E000C0800000C0802000C0804000C0806000C0808000C080A000C080C000C080E000C0A00000C0A02000C0A04000C0A06000C0A08000C0A0A000C0A0C000C0A0E000C0C00000C0C02000C0C04000C0C06000
310
C0C08000C0C0A000F0FBFF00A4A0A000808080000000FF0000FF000000FFFF00FF000000FF00FF00FFFF0000FFFFFF0000000000000000000000000000000000000000000000000000000000000000000000000000000000000000000000000000000000000000000000000000000000000000000000000000000000000000
310
00000000000000000000000000000000000000000000000000000000000000000000000000000000000000000000000000000000000000000000000000000000000000000000000000000000000000000000000000000000000000000000000000000000000000000000000000000000000000000000000000000000000000
310
00000000000000000000000000000000000000000000000000000000000000000000000000000000000000000000000000000000000000000000000000000000000000000000000000000000000000000000000000000000000000000000000000000000000000000000000000000000000000000000000000000000000000
310
0000000000000000000000000000000000000000FFFFFF0000000000000000000000000000000000000000000000000000000000000000FFFFFFFFFFFF0000000000000000000000000000000000000000000000000000000000000000FFFFFFFFFFFF00000000000000000000000000000000000000000000000000000000
310
00000000FFFFFFFFFFFF0000000000000000000000000000000000000000000000000000000000000000FFFFFFFFFFFF0000000000FFFFFFFFFFFFFFFFFFFFFFFFFFFFFFFFFFFFFFFFFFFFFFFFFFFFFFFFFFFF000000000000000000000000000000000000000000FFFFFFFFFFFFFF00000000000000000000000000000000
310
00FFFFFFFFFFFFFFFF0000000000000000000000000000000000FFFFFFFFFFFFFF000000000000000000000000000000000000000000FFFFFFFF000000000000000000000000000000000000000000000000000000000000000000000000000000000000000000000000000000000000000000000000000000000000000000
310
00000000000000000000000000000000000000000000000000000000000000000000000000000000000000000000000000000000000000000000000000000000000000000000000000000000000000000000000000000000000000000000000000000000000000000000000000000000000000000000000000000000000000
310
00000000000000000000000000000000000000000000000000000000000000000000000000000000000000000000000000000000000000000000000000000000000000000000000000000000000000000000000000000000000000000000000000000000000000000000000000000000000000000000000000000000000000
310
0000000000000000000000000000000000000000000000000000000000000000000000000000000000000000000000000000000000000000
102
{BLKREFS
331
37588
331
37589
331
37599
331
3759A
331
375A7
331
378E4
331
378E5
331
378F2
331
378F3
331
378FE
331
378FF
331
3790A
331
3790B
331
37916
331
37917
331
37922
331
37923
331
3792E
331
3792F
331
37992
331
37993
331
37998
331
37999
331
3799E
331
3799F
331
379AC
331
379AD
331
379B2
331
379B3
331
379BA
331
379BB
331
379C0
331
379C1
331
379D8
331
379DE
331
379DF
331
379E4
331
379E5
102
}
 70
     0
280
     1
281
     0
  0
BLOCK_RECORD
  5
34E60
330
1
100
AcDbSymbolTableRecord
100
AcDbBlockTableRecord
  2
VW_EMPTYARROW
340
0
 70
     0
280
     1
281
     0
  0
BLOCK_RECORD
  5
34E69
330
1
100
AcDbSymbolTableRecord
100
AcDbBlockTableRecord
  2
VW_FILLEDARROW
340
0
 70
     0
280
     1
281
     0
  0
BLOCK_RECORD
  5
3624A
330
1
100
AcDbSymbolTableRecord
100
AcDbBlockTableRecord
  2
_Open30
340
0
 70
     0
280
     1
281
     0
  0
BLOCK_RECORD
  5
3659B
330
1
100
AcDbSymbolTableRecord
100
AcDbBlockTableRecord
  2
グループ-10
340
0
102
{BLKREFS
331
3659A
331
379C8
102
}
 70
     0
280
     1
281
     0
  0
BLOCK_RECORD
  5
366E1
330
1
100
AcDbSymbolTableRecord
100
AcDbBlockTableRecord
  2
グループ-23
340
0
102
{BLKREFS
331
366E0
331
379EE
102
}
 70
     0
280
     1
281
     0
  0
BLOCK_RECORD
  5
36D60
330
1
100
AcDbSymbolTableRecord
100
AcDbBlockTableRecord
  2
PS_A3
340
0
102
{BLKREFS
331
36E7F
102
}
 70
     0
280
     1
281
     0
  0
BLOCK_RECORD
  5
36D67
330
1
100
AcDbSymbolTableRecord
100
AcDbBlockTableRecord
  2
SIZEA3
340
0
310
2800000020000000200000000100080000000000000400000000000000000000000000000000000000000000000080000080000000808000800000008000800080800000C0C0C000C0DCC000F0CAA6000020400000206000002080000020A0000020C0000020E00000400000004020000040400000406000004080000040A0
310
000040C0000040E00000600000006020000060400000606000006080000060A0000060C0000060E00000800000008020000080400000806000008080000080A0000080C0000080E00000A0000000A0200000A0400000A0600000A0800000A0A00000A0C00000A0E00000C0000000C0200000C0400000C0600000C0800000C0
310
A00000C0C00000C0E00000E0000000E0200000E0400000E0600000E0800000E0A00000E0C00000E0E00040000000400020004000400040006000400080004000A0004000C0004000E00040200000402020004020400040206000402080004020A0004020C0004020E000404000004040200040404000404060004040800040
310
40A0004040C0004040E00040600000406020004060400040606000406080004060A0004060C0004060E00040800000408020004080400040806000408080004080A0004080C0004080E00040A0000040A0200040A0400040A0600040A0800040A0A00040A0C00040A0E00040C0000040C0200040C0400040C0600040C08000
310
40C0A00040C0C00040C0E00040E0000040E0200040E0400040E0600040E0800040E0A00040E0C00040E0E00080000000800020008000400080006000800080008000A0008000C0008000E00080200000802020008020400080206000802080008020A0008020C0008020E00080400000804020008040400080406000804080
310
008040A0008040C0008040E00080600000806020008060400080606000806080008060A0008060C0008060E00080800000808020008080400080806000808080008080A0008080C0008080E00080A0000080A0200080A0400080A0600080A0800080A0A00080A0C00080A0E00080C0000080C0200080C0400080C0600080C0
310
800080C0A00080C0C00080C0E00080E0000080E0200080E0400080E0600080E0800080E0A00080E0C00080E0E000C0000000C0002000C0004000C0006000C0008000C000A000C000C000C000E000C0200000C0202000C0204000C0206000C0208000C020A000C020C000C020E000C0400000C0402000C0404000C0406000C0
310
408000C040A000C040C000C040E000C0600000C0602000C0604000C0606000C0608000C060A000C060C000C060E000C0800000C0802000C0804000C0806000C0808000C080A000C080C000C080E000C0A00000C0A02000C0A04000C0A06000C0A08000C0A0A000C0A0C000C0A0E000C0C00000C0C02000C0C04000C0C06000
310
C0C08000C0C0A000F0FBFF00A4A0A000808080000000FF0000FF000000FFFF00FF000000FF00FF00FFFF0000FFFFFF0000000000000000000000000000000000000000000000000000000000000000000000000000000000000000000000000000000000000000FBFB00000000000000000000000000000000000000000000
310
000000000000FBFB000000000000000000000000000000000000000000000000000000FBFBFB000000000000000000000000000000000000000000000000000000FBFBFB000000000000000000000000000000000000000000000000000000FBFB0000FB000000000000000000000000000000000000000000000000FBFBFB
310
00000000FB00000000000000000000000000000000000000000000FBFB00000000000000FB0000000000000000000000000000000000000000FBFB000000000000000000FB00000000000000000000000000000000000000000000FBFB00000000000000FB000000000000000000000000000000000000000000000000FBFB
310
FB00000000FB000000000000000000000000000000000000000000000000000000FBFB0000FB0000000000000000000000000000000000000000000000000000000000FBFBFB00000000000000000000000000000000000000000000000000000000000000FBFBFB0000000000000000000000000000000000000000000000
310
000000000000000000FBFB0000000000000000000000000000000000000000000000000000000000000000FBFB00000000000000000000000000000000000000000000000000000000000000000000000000000000000000000000000000000000000000000000000000000000000000000000000000000000000000000000
310
00000000000000000000FB0000000000000000000000000000000000000000000000000000000000000000FBFB000000000000000000000000000000FB000000000000000000000000000000FB000000000000000000000000000000FB00000000000000000000000000000000FB0000000000000000000000000000FB0000
310
0000000000000000000000000000FB0000000000000000000000000000FB00000000000000000000000000000000FB0000000000000000000000000000FB0000000000FB00000000000000000000FB0000000000000000000000000000FB00000000FBFB00000000000000000000FB0000000000000000000000000000FB00
310
00FBFB00FB00000000000000000000FB0000000000000000000000000000FB00FB00000000FB0000000000000000FB000000000000000000000000000000FBFB0000000000FB0000000000000000FB000000000000000000000000000000FB00000000000000FBFB00000000FBFB0000000000000000000000000000000000
310
000000000000000000FBFBFBFB00000000000000000000000000000000000000000000000000000000000000000000000000000000000000
102
{BLKREFS
331
36D66
102
}
 70
     4
280
     1
281
     0
  0
BLOCK_RECORD
  5
36D77
330
1
100
AcDbSymbolTableRecord
100
AcDbBlockTableRecord
  2
PS_承認図(A3)
340
0
102
{BLKREFS
331
36E80
102
}
 70
     0
280
     1
281
     0
  0
BLOCK_RECORD
  5
37608
330
1
100
AcDbSymbolTableRecord
100
AcDbBlockTableRecord
  2
_None
340
0
102
{BLKREFS
331
375A8
331
379D9
102
}
 70
     0
280
     1
281
     0
  0
ENDTAB
  0
ENDSEC
  0
SECTION
  2
BLOCKS
  0
BLOCK
  5
19
330
18
100
AcDbEntity
  8
0
100
AcDbBlockBegin
  2
*MODEL_SPACE
 70
     0
 10
0.0
 20
0.0
 30
0.0
  3
*MODEL_SPACE
  1

  0
ENDBLK
  5
1A
330
18
100
AcDbEntity
  8
0
100
AcDbBlockEnd
  0
BLOCK
  5
16
330
15
100
AcDbEntity
 67
     1
  8
0
100
AcDbBlockBegin
  2
*PAPER_SPACE
 70
     0
 10
0.0
 20
0.0
 30
0.0
  3
*PAPER_SPACE
  1

  0
ENDBLK
  5
17
330
15
100
AcDbEntity
 67
     1
  8
0
100
AcDbBlockEnd
  0
BLOCK
  5
103
330
101
100
AcDbEntity
  8
0
100
AcDbBlockBegin
  2
GENAXEH
 70
     0
 10
0.0
 20
0.0
 30
0.0
  3
GENAXEH
  1

  0
LINE
  5
102
330
101
100
AcDbEntity
  8
0
100
AcDbLine
 10
-1.0
 20
0.0
 30
0.0
 11
1.0
 21
0.0
 31
0.0
  0
ENDBLK
  5
104
330
101
100
AcDbEntity
  8
0
100
AcDbBlockEnd
  0
BLOCK
  5
30E
330
30A
100
AcDbEntity
  8
0
100
AcDbBlockBegin
  2
_Open
 70
     0
 10
0.0
 20
0.0
 30
0.0
  3
_Open
  1

  0
LINE
  5
30B
330
30A
100
AcDbEntity
  8
0
  6
ByBlock
 62
     0
370
    -2
100
AcDbLine
 10
-1.0
 20
0.1666666666666666
 30
0.0
 11
0.0
 21
0.0
 31
0.0
  0
LINE
  5
30C
330
30A
100
AcDbEntity
  8
0
  6
ByBlock
 62
     0
370
    -2
100
AcDbLine
 10
-1.0
 20
-0.1666666666666666
 30
0.0
 11
0.0
 21
0.0
 31
0.0
  0
LINE
  5
30D
330
30A
100
AcDbEntity
  8
0
  6
ByBlock
 62
     0
370
    -2
100
AcDbLine
 10
0.0
 20
0.0
 30
0.0
 11
-1.0
 21
0.0
 31
0.0
  0
ENDBLK
  5
30F
330
30A
100
AcDbEntity
  8
0
100
AcDbBlockEnd
  0
BLOCK
  5
34E61
330
34E60
100
AcDbEntity
  8
0
100
AcDbBlockBegin
  2
VW_EMPTYARROW
 70
     0
 10
0.0
 20
0.0
 30
0.0
  3
VW_EMPTYARROW
  1

  0
LINE
  5
34E62
330
34E60
100
AcDbEntity
  8
0
  6
ByBlock
 62
     0
370
    -2
100
AcDbLine
 10
0.0
 20
0.0
 30
0.0
 11
-1.0
 21
0.0
 31
0.0
  0
LWPOLYLINE
  5
34E63
330
34E60
100
AcDbEntity
  8
0
  6
Continuous
 62
     0
370
    -2
100
AcDbPolyline
 90
        3
 70
   128
 43
0.0
 10
-1.0
 20
0.2679491924311228
 10
0.0
 20
0.0
 10
-1.0
 20
-0.267949192431123
  0
ENDBLK
  5
34E68
330
34E60
100
AcDbEntity
  8
0
100
AcDbBlockEnd
  0
BLOCK
  5
34E6A
330
34E69
100
AcDbEntity
  8
0
100
AcDbBlockBegin
  2
VW_FILLEDARROW
 70
     0
 10
0.0
 20
0.0
 30
0.0
  3
VW_FILLEDARROW
  1

  0
LWPOLYLINE
  5
34E6B
330
34E69
100
AcDbEntity
  8
0
  6
Continuous
 62
     0
370
     5
100
AcDbPolyline
 90
        3
 70
   129
 43
0.0
 10
-3.175193798449613
 20
0.8507906141068831
 10
0.0
 20
0.0
 10
-3.175193798449613
 20
-0.8507906141068837
  0
ENDBLK
  5
34E70
330
34E69
100
AcDbEntity
  8
0
100
AcDbBlockEnd
  0
BLOCK
  5
3624B
330
3624A
100
AcDbEntity
  8
0
100
AcDbBlockBegin
  2
_Open30
 70
     0
 10
0.0
 20
0.0
 30
0.0
  3
_Open30
  1

  0
LINE
  5
3624C
330
3624A
100
AcDbEntity
  8
0
  6
ByBlock
 62
     0
370
    -2
100
AcDbLine
 10
-1.0
 20
0.26794919
 30
0.0
 11
0.0
 21
0.0
 31
0.0
  0
LINE
  5
3624D
330
3624A
100
AcDbEntity
  8
0
  6
ByBlock
 62
     0
370
    -2
100
AcDbLine
 10
0.0
 20
0.0
 30
0.0
 11
-1.0
 21
-0.26794919
 31
0.0
  0
LINE
  5
3624E
330
3624A
100
AcDbEntity
  8
0
  6
ByBlock
 62
     0
370
    -2
100
AcDbLine
 10
0.0
 20
0.0
 30
0.0
 11
-1.0
 21
0.0
 31
0.0
  0
ENDBLK
  5
3624F
330
3624A
100
AcDbEntity
  8
0
100
AcDbBlockEnd
  0
BLOCK
  5
3659C
330
3659B
100
AcDbEntity
  8
0
100
AcDbBlockBegin
  2
グループ-10
 70
     0
 10
0.0
 20
0.0
 30
0.0
  3
グループ-10
  1

  0
LINE
  5
3659D
330
3659B
100
AcDbEntity
  8
AM_0
  6
Continuous
 62
     7
370
    18
100
AcDbLine
 10
-855.0622585709632
 20
472.4992536454301
 30
0.0
 11
-855.0622585709632
 21
471.6552827328619
 31
0.0
  0
LINE
  5
3659E
330
3659B
100
AcDbEntity
  8
AM_0
  6
Continuous
 62
     7
370
    18
100
AcDbLine
 10
-858.6069363865015
 20
472.4992536454301
 30
0.0
 11
-858.6069363865015
 21
471.6552827328619
 31
0.0
  0
LINE
  5
3659F
330
3659B
100
AcDbEntity
  8
AM_0
  6
Continuous
 62
     7
370
    18
100
AcDbLine
 10
-856.412612022448
 20
473.8496070969154
 30
0.0
 11
-857.256582978134
 21
473.8496070969154
 31
0.0
  0
LINE
  5
365A0
330
3659B
100
AcDbEntity
  8
AM_0
  6
Continuous
 62
     7
370
    18
100
AcDbLine
 10
-856.4126119793298
 20
470.3049292813766
 30
0.0
 11
-857.2565829350158
 21
470.3049292813766
 31
0.0
  0
LINE
  5
365A1
330
3659B
100
AcDbEntity
  8
AM_0
  6
Continuous
 62
     7
370
    18
100
AcDbLine
 10
-856.4126118930933
 20
470.3049348005131
 30
0.0
 11
-856.3980255915328
 21
471.140603379574
 31
0.0
  0
LINE
  5
365A2
330
3659B
100
AcDbEntity
  8
AM_0
  6
Continuous
 62
     7
370
    18
100
AcDbLine
 10
-857.2565830643714
 20
470.3049351454592
 30
0.0
 11
-857.2711698402316
 21
471.1406017410804
 31
0.0
  0
LINE
  5
365A3
330
3659B
100
AcDbEntity
  8
AM_0
  6
Continuous
 62
     7
370
    18
100
AcDbLine
 10
-858.6069315572574
 20
471.6552828190984
 30
0.0
 11
-857.7712628057232
 21
471.640696776248
 31
0.0
  0
LINE
  5
365A4
330
3659B
100
AcDbEntity
  8
AM_0
  6
Continuous
 62
     7
370
    18
100
AcDbLine
 10
-858.6069306948918
 20
472.4992537747848
 30
0.0
 11
-857.7712627194867
 21
472.5138408524735
 31
0.0
  0
LINE
  5
365A5
330
3659B
100
AcDbEntity
  8
AM_0
  6
Continuous
 62
     7
370
    18
100
AcDbLine
 10
-857.271169365931
 20
473.013932998718
 30
0.0
 11
-857.2565830643714
 21
473.8496015777789
 31
0.0
  0
LINE
  5
365A6
330
3659B
100
AcDbEntity
  8
AM_0
  6
Continuous
 62
     7
370
    18
100
AcDbLine
 10
-856.3980251172322
 20
473.0139346372116
 30
0.0
 11
-856.4126118930933
 21
473.8496012328328
 31
0.0
  0
LINE
  5
365A7
330
3659B
100
AcDbEntity
  8
AM_0
  6
Continuous
 62
     7
370
    18
100
AcDbLine
 10
-855.0622646075187
 20
472.4992537316666
 30
0.0
 11
-855.8979318067948
 21
472.5138403350545
 31
0.0
  0
LINE
  5
365A8
330
3659B
100
AcDbEntity
  8
AM_0
  6
Continuous
 62
     7
370
    18
100
AcDbLine
 10
-855.0622646075187
 20
471.6552826466254
 30
0.0
 11
-855.8979318067948
 21
471.6406960432375
 31
0.0
  0
LINE
  5
365A9
330
3659B
100
AcDbEntity
  8
AM_0
  6
Continuous
 62
     7
370
    18
100
AcDbLine
 10
-856.2389869311589
 20
472.6728777449991
 30
0.0
 11
-856.3980249016411
 21
473.0139351546306
 31
0.0
  0
LINE
  5
365AA
330
3659B
100
AcDbEntity
  8
AM_0
  6
Continuous
 62
     7
370
    18
100
AcDbLine
 10
-856.2389864999766
 20
472.6728775725262
 30
0.0
 11
-855.8979305132477
 21
472.5138406800006
 31
0.0
  0
LINE
  5
365AB
330
3659B
100
AcDbEntity
  8
AM_0
  6
Continuous
 62
     7
370
    18
100
AcDbLine
 10
-857.4302066896396
 20
472.6728791247833
 30
0.0
 11
-857.7712650478722
 21
472.5138410680647
 31
0.0
  0
LINE
  5
365AC
330
3659B
100
AcDbEntity
  8
AM_0
  6
Continuous
 62
     7
370
    18
100
AcDbLine
 10
-857.4302066465214
 20
472.672879426611
 30
0.0
 11
-857.2711697971133
 21
473.0139350683942
 31
0.0
  0
LINE
  5
365AD
330
3659B
100
AcDbEntity
  8
AM_0
  6
Continuous
 62
     7
370
    18
100
AcDbLine
 10
-857.4302085868428
 20
471.481659668131
 30
0.0
 11
-857.7712637543243
 21
471.6406962588289
 31
0.0
  0
LINE
  5
365AE
330
3659B
100
AcDbEntity
  8
AM_0
  6
Continuous
 62
     7
370
    18
100
AcDbLine
 10
-857.4302085437246
 20
471.4816593663031
 30
0.0
 11
-857.2711702714148
 21
471.1406007062424
 31
0.0
  0
LINE
  5
365AF
330
3659B
100
AcDbEntity
  8
AM_0
  6
Continuous
 62
     7
370
    18
100
AcDbLine
 10
-856.2389886558892
 20
471.4816578571642
 30
0.0
 11
-855.8979305132477
 21
471.6406959138828
 31
0.0
  0
LINE
  5
365B0
330
3659B
100
AcDbEntity
  8
AM_0
  6
Continuous
 62
     7
370
    18
100
AcDbLine
 10
-856.2389886990075
 20
471.481657296627
 30
0.0
 11
-856.3980251172322
 21
471.1406019997899
 31
0.0
  0
ENDBLK
  5
365B1
330
3659B
100
AcDbEntity
  8
0
100
AcDbBlockEnd
  0
BLOCK
  5
366E2
330
366E1
100
AcDbEntity
  8
0
100
AcDbBlockBegin
  2
グループ-23
 70
     0
 10
0.0
 20
0.0
 30
0.0
  3
グループ-23
  1

  0
LINE
  5
366E3
330
366E1
100
AcDbEntity
  8
AM_0
  6
Continuous
 62
     7
370
    18
100
AcDbLine
 10
471.0241212997045
 20
-46.63024357831724
 30
0.0
 11
471.0241212997045
 21
-47.47421449088537
 31
0.0
  0
LINE
  5
366E4
330
366E1
100
AcDbEntity
  8
AM_0
  6
Continuous
 62
     7
370
    18
100
AcDbLine
 10
467.4794434841659
 20
-46.63024357831724
 30
0.0
 11
467.4794434841659
 21
-47.47421449088537
 31
0.0
  0
LINE
  5
366E5
330
366E1
100
AcDbEntity
  8
AM_0
  6
Continuous
 62
     7
370
    18
100
AcDbLine
 10
469.6737678482192
 20
-45.27989012683192
 30
0.0
 11
468.829796892533
 21
-45.27989012683192
 31
0.0
  0
LINE
  5
366E6
330
366E1
100
AcDbEntity
  8
AM_0
  6
Continuous
 62
     7
370
    18
100
AcDbLine
 10
469.6737678913374
 20
-48.82456794237068
 30
0.0
 11
468.8297969356512
 21
-48.82456794237068
 31
0.0
  0
LINE
  5
366E7
330
366E1
100
AcDbEntity
  8
AM_0
  6
Continuous
 62
     7
370
    18
100
AcDbLine
 10
469.6737679775739
 20
-48.82456242323419
 30
0.0
 11
469.6883542791342
 21
-47.98889384417324
 31
0.0
  0
LINE
  5
366E8
330
366E1
100
AcDbEntity
  8
AM_0
  6
Continuous
 62
     7
370
    18
100
AcDbLine
 10
468.8297968062963
 20
-48.8245620782882
 30
0.0
 11
468.8152100304354
 21
-47.98889548266688
 31
0.0
  0
LINE
  5
366E9
330
366E1
100
AcDbEntity
  8
AM_0
  6
Continuous
 62
     7
370
    18
100
AcDbLine
 10
467.4794483134102
 20
-47.47421440464884
 30
0.0
 11
468.3151170649443
 21
-47.48880044749941
 31
0.0
  0
LINE
  5
366EA
330
366E1
100
AcDbEntity
  8
AM_0
  6
Continuous
 62
     7
370
    18
100
AcDbLine
 10
467.4794491757754
 20
-46.63024344896248
 30
0.0
 11
468.3151171511807
 21
-46.61565637127384
 31
0.0
  0
LINE
  5
366EB
330
366E1
100
AcDbEntity
  8
AM_0
  6
Continuous
 62
     7
370
    18
100
AcDbLine
 10
468.8152105047362
 20
-46.11556422502937
 30
0.0
 11
468.8297968062963
 21
-45.27989564596842
 31
0.0
  0
LINE
  5
366EC
330
366E1
100
AcDbEntity
  8
AM_0
  6
Continuous
 62
     7
370
    18
100
AcDbLine
 10
469.6883547534349
 20
-46.11556258653572
 30
0.0
 11
469.6737679775739
 21
-45.2798959909144
 31
0.0
  0
LINE
  5
366ED
330
366E1
100
AcDbEntity
  8
AM_0
  6
Continuous
 62
     7
370
    18
100
AcDbLine
 10
471.0241152631489
 20
-46.63024349208072
 30
0.0
 11
470.1884480638722
 21
-46.61565688869288
 31
0.0
  0
LINE
  5
366EE
330
366E1
100
AcDbEntity
  8
AM_0
  6
Continuous
 62
     7
370
    18
100
AcDbLine
 10
471.0241152631489
 20
-47.47421457712183
 30
0.0
 11
470.1884480638722
 21
-47.48880118050973
 31
0.0
  0
LINE
  5
366EF
330
366E1
100
AcDbEntity
  8
AM_0
  6
Continuous
 62
     7
370
    18
100
AcDbLine
 10
469.8473929395082
 20
-46.45661947874813
 30
0.0
 11
469.6883549690261
 21
-46.11556206911668
 31
0.0
  0
LINE
  5
366F0
330
366E1
100
AcDbEntity
  8
AM_0
  6
Continuous
 62
     7
370
    18
100
AcDbLine
 10
469.8473933706906
 20
-46.45661965122112
 30
0.0
 11
470.1884493574198
 21
-46.61565654374683
 31
0.0
  0
LINE
  5
366F1
330
366E1
100
AcDbEntity
  8
AM_0
  6
Continuous
 62
     7
370
    18
100
AcDbLine
 10
468.6561731810281
 20
-46.45661809896401
 30
0.0
 11
468.315114822795
 21
-46.61565615568255
 31
0.0
  0
LINE
  5
366F2
330
366E1
100
AcDbEntity
  8
AM_0
  6
Continuous
 62
     7
370
    18
100
AcDbLine
 10
468.6561732241463
 20
-46.45661779713625
 30
0.0
 11
468.8152100735538
 21
-46.11556215535321
 31
0.0
  0
LINE
  5
366F3
330
366E1
100
AcDbEntity
  8
AM_0
  6
Continuous
 62
     7
370
    18
100
AcDbLine
 10
468.6561712838248
 20
-47.6478375556164
 30
0.0
 11
468.3151161163427
 21
-47.48880096491845
 31
0.0
  0
LINE
  5
366F4
330
366E1
100
AcDbEntity
  8
AM_0
  6
Continuous
 62
     7
370
    18
100
AcDbLine
 10
468.6561713269431
 20
-47.64783785744415
 30
0.0
 11
468.8152095992529
 21
-47.98889651750496
 31
0.0
  0
LINE
  5
366F5
330
366E1
100
AcDbEntity
  8
AM_0
  6
Continuous
 62
     7
370
    18
100
AcDbLine
 10
469.847391214778
 20
-47.64783936658304
 30
0.0
 11
470.1884493574198
 21
-47.48880130986449
 31
0.0
  0
LINE
  5
366F6
330
366E1
100
AcDbEntity
  8
AM_0
  6
Continuous
 62
     7
370
    18
100
AcDbLine
 10
469.8473911716598
 20
-47.64783992712031
 30
0.0
 11
469.6883547534349
 21
-47.98889522395736
 31
0.0
  0
ENDBLK
  5
366F7
330
366E1
100
AcDbEntity
  8
0
100
AcDbBlockEnd
  0
BLOCK
  5
36D61
330
36D60
100
AcDbEntity
  8
0
100
AcDbBlockBegin
  2
PS_A3
 70
     0
 10
0.0
 20
0.0
 30
0.0
  3
PS_A3
  1

  0
LINE
  5
36D62
330
36D60
100
AcDbEntity
  8
AM_1
100
AcDbLine
 10
-195.0
 20
-138.5
 30
0.0
 11
195.0
 21
-138.5
 31
0.0
  0
LINE
  5
36D63
330
36D60
100
AcDbEntity
  8
AM_1
100
AcDbLine
 10
-195.0
 20
123.5
 30
0.0
 11
195.0
 21
123.5
 31
0.0
  0
LINE
  5
36D64
330
36D60
100
AcDbEntity
  8
AM_1
100
AcDbLine
 10
-195.0
 20
123.5
 30
0.0
 11
-195.0
 21
-138.5
 31
0.0
  0
TEXT
  5
36D65
330
36D60
100
AcDbEntity
  8
AM_6
 60
     1
100
AcDbText
 10
-195.0
 20
-138.5000010427084
 30
0.0
 40
2.0
  1
!GENTITLE-LL
100
AcDbText
  0
INSERT
  5
36D66
330
36D60
100
AcDbEntity
  8
AM_BOR
100
AcDbBlockReference
  2
SIZEA3
 10
-195.0
 20
-138.5
 30
0.0
  0
LINE
  5
36D6B
330
36D60
100
AcDbEntity
  8
AM_1
100
AcDbLine
 10
195.0
 20
123.5
 30
0.0
 11
195.0
 21
-138.5
 31
0.0
  0
TEXT
  5
36D6C
330
36D60
100
AcDbEntity
  8
AM_6
 60
     1
100
AcDbText
 10
195.0
 20
-138.5
 30
0.0
 40
2.0
  1
!GENTITLE-INSERT
100
AcDbText
  0
TEXT
  5
36D6D
330
36D60
100
AcDbEntity
  8
AM_6
 60
     1
100
AcDbText
 10
194.9190456477543
 20
131.6219808483311
 30
0.0
 40
2.0
  1
!GENTITLE-MAX
100
AcDbText
  0
TEXT
  5
36D6E
330
36D60
100
AcDbEntity
  8
AM_6
 60
     1
100
AcDbText
 10
195.0
 20
123.4999990358497
 30
0.0
 40
2.0
  1
!GENTITLE-RU
100
AcDbText
  0
LINE
  5
36D6F
330
36D60
100
AcDbEntity
  8
AM_CL
100
AcDbLine
 10
-215.9999991601576
 20
-149.9999997072371
 30
0.0
 11
-215.9999991601576
 21
-129.9999997072371
 31
0.0
  0
LINE
  5
36D70
330
36D60
100
AcDbEntity
  8
AM_CL
100
AcDbLine
 10
-215.9999991601576
 20
-149.9999997072371
 30
0.0
 11
-195.9999991601576
 21
-149.9999997072371
 31
0.0
  0
LINE
  5
36D71
330
36D60
100
AcDbEntity
  8
AM_CL
100
AcDbLine
 10
-215.9999991601576
 20
-149.9999997072371
 30
0.0
 11
-215.9999991601576
 21
-149.9999997072371
 31
0.0
  0
LINE
  5
36D72
330
36D60
100
AcDbEntity
  8
AM_CL
100
AcDbLine
 10
205.0
 20
148.0
 30
0.0
 11
185.0
 21
148.0
 31
0.0
  0
LINE
  5
36D73
330
36D60
100
AcDbEntity
  8
AM_CL
100
AcDbLine
 10
205.0
 20
148.0
 30
0.0
 11
205.0
 21
128.0
 31
0.0
  0
MTEXT
  5
36D74
330
36D60
100
AcDbEntity
  8
AM_6
100
AcDbMText
 10
194.9999757639628
 20
124.5
 30
0.0
 40
4.0
 41
123.9748
 46
0.0
 71
     9
 72
     5
  1
株式会社カシイ
 73
     1
 44
1.0
  0
ENDBLK
  5
36D75
330
36D60
100
AcDbEntity
  8
0
100
AcDbBlockEnd
  0
BLOCK
  5
36D68
330
36D67
100
AcDbEntity
  8
0
100
AcDbBlockBegin
  2
SIZEA3
 70
     0
 10
0.0
 20
0.0
 30
0.0
  3
SIZEA3
  1

  0
TEXT
  5
36D69
330
36D67
100
AcDbEntity
  8
AM_6
100
AcDbText
 10
-1.0
 20
0.0
 30
0.0
 40
3.2
  1
A3
 50
90.0
100
AcDbText
  0
ENDBLK
  5
36D6A
330
36D67
100
AcDbEntity
  8
0
100
AcDbBlockEnd
  0
BLOCK
  5
36D78
330
36D77
100
AcDbEntity
  8
0
100
AcDbBlockBegin
  2
PS_承認図(A3)
 70
     2
 10
0.0
 20
0.0
 30
0.0
  3
PS_承認図(A3)
  1

  0
MTEXT
  5
36D79
330
36D77
100
AcDbEntity
  8
AM_6
100
AcDbMText
 10
-58.75000000000001
 20
18.68750000000012
 30
0.0
 40
4.0
 41
0.0
 46
0.0
 71
     5
 72
     5
  1
\T1.4;\W0.59;尺度（A3）
 73
     1
 44
1.0
  0
ATTDEF
  5
36D7A
330
36D77
100
AcDbEntity
  8
AM_6
100
AcDbText
 10
-74.0
 20
2.5
 30
0.0
 40
5.0
  1

 41
0.8300000000000001
 11
-74.0
 21
5.0
 31
0.0
100
AcDbAttributeDefinition
  3
図番（主）
  2
ZUBAN{7.2}
 70
     0
 74
     2
280
     0
  0
ATTDEF
  5
36D7B
330
36D77
100
AcDbEntity
  8
AM_6
100
AcDbText
 10
-32.00000000000001
 20
2.5
 30
0.0
 40
5.0
  1

 41
0.8300000000000001
 11
-32.00000000000001
 21
5.0
 31
0.0
100
AcDbAttributeDefinition
  3
改番（主）
  2
KAIBAN{2}
 70
     0
 74
     2
280
     0
  0
ATTDEF
  5
36D7C
330
36D77
100
AcDbEntity
  8
AM_6
100
AcDbText
 10
-74.0
 20
15.5
 30
0.0
 40
4.0
  1

 41
0.83
 11
-74.0
 21
17.5
 31
0.0
100
AcDbAttributeDefinition
  3
図番（副）
  2
SZUBAN{9}
 70
     0
 74
     2
280
     0
  0
ATTDEF
  5
36D7D
330
36D77
100
AcDbEntity
  8
AM_6
100
AcDbText
 10
-32.00000000000001
 20
15.5
 30
0.0
 40
4.0
  1

 41
0.83
 11
-32.00000000000001
 21
17.5
 31
0.0
100
AcDbAttributeDefinition
  3
改番（副）
  2
SKAIBAN{2}
 70
     0
 74
     2
280
     0
  0
ATTDEF
  5
36D7E
330
36D77
100
AcDbEntity
  8
AM_6
100
AcDbText
 10
-13.00000000000001
 20
13.25
 30
0.0
 40
4.0
  1

 41
0.83
 72
     1
 11
-13.00000000000001
 21
15.25
 31
0.0
100
AcDbAttributeDefinition
  3
ページ
  2
PAGE{2}
 70
     0
 74
     2
280
     0
  0
ATTDEF
  5
36D7F
330
36D77
100
AcDbEntity
  8
AM_6
100
AcDbText
 10
-13.00000000000001
 20
5.25
 30
0.0
 40
4.0
  1

 41
0.83
 72
     1
 11
-13.00000000000001
 21
7.25
 31
0.0
100
AcDbAttributeDefinition
  3
総ページ
  2
TOTALPAGE{2}
 70
     0
 74
     2
280
     0
  0
ATTDEF
  5
36D80
330
36D77
100
AcDbEntity
  8
AM_6
100
AcDbText
 10
-306.5
 20
14.65
 30
0.0
 40
3.2
  1

 41
0.8299999999999998
 11
-306.5
 21
16.25
 31
0.0
100
AcDbAttributeDefinition
  3
図名（上）
  2
ZUMEI1{16.8}
 70
     0
 74
     2
280
     0
  0
ATTDEF
  5
36D81
330
36D77
100
AcDbEntity
  8
AM_6
100
AcDbText
 10
-306.5
 20
3.4
 30
0.0
 40
3.2
  1

 41
0.8299999999999998
 11
-306.5
 21
5.0
 31
0.0
100
AcDbAttributeDefinition
  3
図名（下）
  2
ZUMEI2{16.8}
 70
     0
 74
     2
280
     0
  0
ATTDEF
  5
36D82
330
36D77
100
AcDbEntity
  8
AM_6
100
AcDbText
 10
-203.75
 20
5.0
 30
0.0
 40
4.0
  1

 41
0.83
 72
     1
 11
-203.75
 21
7.0
 31
0.0
100
AcDbAttributeDefinition
  3
尺度
  2
GEN-TITLE-SCA
 70
     0
 74
     2
280
     0
  0
ATTDEF
  5
36D83
330
36D77
100
AcDbEntity
  8
AM_6
100
AcDbText
 10
-179.5
 20
16.75
 30
0.0
 40
4.0
  1

 41
0.83
 11
-179.5
 21
18.75
 31
0.0
100
AcDbAttributeDefinition
  3
作成日
  2
SAKUSEI{6.5}
 70
     0
 74
     2
280
     0
  0
ATTDEF
  5
36D84
330
36D77
100
AcDbEntity
  8
AM_6
100
AcDbText
 10
-179.5
 20
9.25
 30
0.0
 40
4.0
  1

 41
0.83
 11
-179.5
 21
11.25
 31
0.0
100
AcDbAttributeDefinition
  3
修正日①
  2
SYUSEI1{6.5}
 70
     0
 74
     2
280
     0
  0
ATTDEF
  5
36D85
330
36D77
100
AcDbEntity
  8
AM_6
100
AcDbText
 10
-179.5
 20
1.75
 30
0.0
 40
4.0
  1

 41
0.83
 11
-179.5
 21
3.75
 31
0.0
100
AcDbAttributeDefinition
  3
修正日②
  2
SYUSEI2{6.5}
 70
     0
 74
     2
280
     0
  0
ATTDEF
  5
36D86
330
36D77
100
AcDbEntity
  8
AM_6
100
AcDbText
 10
-140.5
 20
5.0
 30
0.0
 40
4.0
  1

 41
0.83
 72
     1
 11
-140.5
 21
7.0
 31
0.0
100
AcDbAttributeDefinition
  3
担当者
  2
TANTO{5}
 70
     0
 74
     2
280
     0
  0
ATTDEF
  5
36D87
330
36D77
100
AcDbEntity
  8
AM_6
100
AcDbText
 10
-119.5
 20
5.0
 30
0.0
 40
4.0
  1

 41
0.83
 72
     1
 11
-119.5
 21
7.0
 31
0.0
100
AcDbAttributeDefinition
  3
作図者
  2
SAKUZU{5}
 70
     0
 74
     2
280
     0
  0
ATTDEF
  5
36D88
330
36D77
100
AcDbEntity
  8
AM_6
100
AcDbText
 10
-98.5
 20
5.0
 30
0.0
 40
4.0
  1

 41
0.83
 72
     1
 11
-98.5
 21
7.0
 31
0.0
100
AcDbAttributeDefinition
  3
検図者
  2
KENZU{5}
 70
     0
 74
     2
280
     0
  0
MTEXT
  5
36D89
330
36D77
100
AcDbEntity
  8
AM_6
100
AcDbMText
 10
-385.9999999999999
 20
18.50000000000006
 30
0.0
 40
4.0
 41
0.0
 46
0.0
 71
     4
 72
     5
  1
\T1.4;\W0.59;御承認
 73
     1
 44
1.0
  0
MTEXT
  5
36D8A
330
36D77
100
AcDbEntity
  8
AM_6
100
AcDbMText
 10
-211.0
 20
18.50000000000006
 30
0.0
 40
4.0
 41
0.0
 46
0.0
 71
     4
 72
     5
  1
\T1.4;\W0.59;名称
 73
     1
 44
1.0
  0
LINE
  5
36D8B
330
36D77
100
AcDbEntity
  8
AM_1
100
AcDbLine
 10
-389.9999999999999
 20
22.50000000000006
 30
0.0
 11
-0.0000000000000071
 21
22.50000000000006
 31
0.0
  0
LINE
  5
36D8C
330
36D77
100
AcDbEntity
  8
AM_1
100
AcDbLine
 10
-389.9999999999999
 20
22.50000000000006
 30
0.0
 11
-389.9999999999999
 21
0.0000000000000611
 31
0.0
  0
LINE
  5
36D8D
330
36D77
100
AcDbEntity
  8
AM_0
100
AcDbLine
 10
-71.5
 20
22.50000000000012
 30
0.0
 11
-71.5
 21
0.0000000000001218
 31
0.0
  0
LINE
  5
36D8E
330
36D77
100
AcDbEntity
  8
AM_1
100
AcDbLine
 10
-203.0
 20
11.25000000000012
 30
0.0
 11
-83.5
 21
11.25000000000012
 31
0.0
  0
LWPOLYLINE
  5
36D8F
102
{ACAD_REACTORS
330
36D9B
102
}
330
36D77
100
AcDbEntity
  8
AM_0
100
AcDbPolyline
 90
       13
 70
     0
 43
0.0
 10
-241.5162566457203
 20
14.5511960246117
 10
-241.5162566457203
 20
7.983558121570726
 10
-244.0984538780498
 20
7.983558121570726
 10
-244.0984538780498
 20
10.36027594322441
 10
-245.1808484720372
 20
10.36027594322441
 10
-245.1808484720372
 20
7.983558121570726
 10
-247.7619708338662
 20
7.983558121570726
 10
-247.7619708338662
 20
14.5511960246117
 10
-245.1808484720372
 20
14.5511960246117
 10
-245.1808484720372
 20
12.60191837198387
 10
-244.0984538780498
 20
12.60191837198387
 10
-244.0984538780498
 20
14.5511960246117
 10
-241.5162566457203
 20
14.5511960246117
  0
LINE
  5
36D90
102
{ACAD_REACTORS
330
36D9B
102
}
330
36D77
100
AcDbEntity
  8
AM_0
100
AcDbLine
 10
-279.4280140682932
 20
3.529241204044775
 30
0.0
 11
-279.4280140682932
 21
18.97075879595523
 31
0.0
  0
LWPOLYLINE
  5
36D91
102
{ACAD_REACTORS
330
36D9B
102
}
330
36D77
100
AcDbEntity
  8
AM_0
100
AcDbPolyline
 90
        9
 70
     0
 43
0.0
 10
-263.0613192475894
 20
14.5511960246117
 10
-264.4962713657357
 20
7.983558121570726
 10
-261.9147907137398
 20
7.983558121570726
 10
-261.7567847501687
 20
8.447006452362803
 10
-260.070671225076
 20
8.447006452362803
 10
-259.916248163173
 20
7.983558121570726
 10
-257.3662970458581
 20
7.983558121570726
 10
-258.9796776670847
 20
14.5511960246117
 10
-263.0613192475894
 20
14.5511960246117
  0
LWPOLYLINE
  5
36D92
102
{ACAD_REACTORS
330
36D9B
102
}
330
36D77
100
AcDbEntity
  8
AM_0
100
AcDbPolyline
 90
       12
 70
     0
 43
0.0
 10
-265.9240576805453
 20
14.5511960246117
 10
-267.5403046231065
 20
11.58562831377622
 10
-265.7674848776413
 20
7.983558121570726
 10
-268.7133466293013
 20
7.983558121570726
 10
-270.1117531504311
 20
11.3566808971731
 10
-270.1117531504311
 20
7.983558121570726
 10
-272.6950252532611
 20
7.983558121570726
 10
-272.6950252532611
 20
14.5511960246117
 10
-270.1117531504311
 20
14.5511960246117
 10
-270.1117531504311
 20
11.51486600582769
 10
-268.5990520660832
 20
14.5511960246117
 10
-265.9240576805453
 20
14.5511960246117
  0
SPLINE
  5
36D93
102
{ACAD_REACTORS
330
36D9B
102
}
330
36D77
100
AcDbEntity
  8
AM_0
100
AcDbSpline
210
0.0
220
0.0
230
1.0
 70
     9
 71
     3
 72
   110
 73
   106
 74
     0
 42
0.000000001
 43
0.0000000001
 40
0.0
 40
0.0
 40
0.0
 40
0.0
 40
1.0
 40
1.0
 40
1.0
 40
2.0
 40
2.0
 40
2.0
 40
3.0
 40
3.0
 40
3.0
 40
4.0
 40
4.0
 40
4.0
 40
5.0
 40
5.0
 40
5.0
 40
6.0
 40
6.0
 40
6.0
 40
7.0
 40
7.0
 40
7.0
 40
8.0
 40
8.0
 40
8.0
 40
9.0
 40
9.0
 40
9.0
 40
10.0
 40
10.0
 40
10.0
 40
11.0
 40
11.0
 40
11.0
 40
12.0
 40
12.0
 40
12.0
 40
13.0
 40
13.0
 40
13.0
 40
14.0
 40
14.0
 40
14.0
 40
15.0
 40
15.0
 40
15.0
 40
16.0
 40
16.0
 40
16.0
 40
17.0
 40
17.0
 40
17.0
 40
18.0
 40
18.0
 40
18.0
 40
19.0
 40
19.0
 40
19.0
 40
20.0
 40
20.0
 40
20.0
 40
21.0
 40
21.0
 40
21.0
 40
22.0
 40
22.0
 40
22.0
 40
23.0
 40
23.0
 40
23.0
 40
24.0
 40
24.0
 40
24.0
 40
25.0
 40
25.0
 40
25.0
 40
26.0
 40
26.0
 40
26.0
 40
27.0
 40
27.0
 40
27.0
 40
28.0
 40
28.0
 40
28.0
 40
29.0
 40
29.0
 40
29.0
 40
30.0
 40
30.0
 40
30.0
 40
31.0
 40
31.0
 40
31.0
 40
32.0
 40
32.0
 40
32.0
 40
33.0
 40
33.0
 40
33.0
 40
34.0
 40
34.0
 40
34.0
 40
35.0
 40
35.0
 40
35.0
 40
35.0
 10
-249.5308493874961
 20
12.50392601135627
 30
0.0
 10
-249.5308493874961
 20
12.50392601135627
 30
0.0
 10
-252.1757473990207
 20
12.50392601135627
 30
0.0
 10
-252.1757473990207
 20
12.50392601135627
 30
0.0
 10
-252.1757473990207
 20
12.50392601135627
 30
0.0
 10
-252.1757473990207
 20
13.07092020036174
 30
0.0
 10
-252.1757473990207
 20
13.07092020036174
 30
0.0
 10
-252.1757473990207
 20
13.30022590713156
 30
0.0
 10
-252.2248331518761
 20
13.41201243918204
 30
0.0
 10
-252.2950580245744
 20
13.47489236346041
 30
0.0
 10
-252.3659994776064
 20
13.53866801315576
 30
0.0
 10
-252.5
 20
13.66747332813048
 30
0.0
 10
-252.8056215123043
 20
13.66747332813048
 30
0.0
 10
-253.0818632309287
 20
13.66747332813048
 30
0.0
 10
-253.2058316286512
 20
13.58882863651161
 30
0.0
 10
-253.3308748968742
 20
13.47489236346041
 30
0.0
 10
-253.3720782660594
 20
13.43888420169407
 30
0.0
 10
-253.4620090979332
 20
13.22086463517928
 30
0.0
 10
-253.4620090979332
 20
13.09223846528795
 30
0.0
 10
-253.4620090979332
 20
12.87171086760532
 30
0.0
 10
-253.4100570237431
 20
12.70761397119816
 30
0.0
 10
-253.3065111655299
 20
12.59905205064933
 30
0.0
 10
-253.208339659819
 20
12.48672808334862
 30
0.0
 10
-252.8152953468086
 20
12.26010955282993
 30
0.0
 10
-252.3570422234356
 20
12.10120786384158
 30
0.0
 10
-251.0442670521777
 20
11.63883440355016
 30
0.0
 10
-250.1209532922619
 20
11.2414906085379
 30
0.0
 10
-249.7795027632748
 20
10.94805096190589
 30
0.0
 10
-249.4384105244547
 20
10.65926908744251
 30
0.0
 10
-249.2642815033762
 20
10.29757516402947
 30
0.0
 10
-249.2642815033762
 20
9.64369560956834
 30
0.0
 10
-249.2642815033762
 20
9.174514636107006
 30
0.0
 10
-249.358511817252
 20
8.826435739033627
 30
0.0
 10
-249.5480473155041
 20
8.601429514265703
 30
0.0
 10
-249.737582813756
 20
8.375348418997191
 30
0.0
 10
-250.1037553642542
 20
8.187246081412525
 30
0.0
 10
-250.6458483866651
 20
8.036047631011002
 30
0.0
 10
-251.1886579894094
 20
7.884849180609649
 30
0.0
 10
-251.918853349405
 20
7.809249955408916
 30
0.0
 10
-252.6390165847292
 20
7.809249955408916
 30
0.0
 10
-253.429046402585
 20
7.809249955408916
 30
0.0
 10
-254.1044233670558
 20
7.895956175781237
 30
0.0
 10
-254.6629977371407
 20
8.069726906692836
 30
0.0
 10
-255.2219303973924
 20
8.24260191218741
 30
0.0
 10
-255.5877446577238
 20
8.465279250871049
 30
0.0
 10
-255.760440518135
 20
8.736146616992983
 30
0.0
 10
-255.9338529588797
 20
9.006118257698063
 30
0.0
 10
-256.0209174694188
 20
9.39253420262196
 30
0.0
 10
-256.0209174694188
 20
9.893244710763952
 30
0.0
 10
-256.0209174694188
 20
9.893244710763952
 30
0.0
 10
-256.0209174694188
 20
10.29166337627686
 30
0.0
 10
-256.0209174694188
 20
10.29166337627686
 30
0.0
 10
-256.0209174694188
 20
10.29166337627686
 30
0.0
 10
-253.3649124627228
 20
10.29166337627686
 30
0.0
 10
-253.3649124627228
 20
10.29166337627686
 30
0.0
 10
-253.3649124627228
 20
10.29166337627686
 30
0.0
 10
-253.3649124627228
 20
9.587981488626724
 30
0.0
 10
-253.3649124627228
 20
9.587981488626724
 30
0.0
 10
-253.3649124627228
 20
9.334849485762561
 30
0.0
 10
-253.2825057243524
 20
9.197266061700759
 30
0.0
 10
-253.2058316286512
 20
9.127220334085678
 30
0.0
 10
-253.12915753295
 20
9.057174606470824
 30
0.0
 10
-252.9449963872004
 20
8.998415019111064
 30
0.0
 10
-252.7493699561123
 20
8.998415019111064
 30
0.0
 10
-252.5530269446905
 20
8.998415019111064
 30
0.0
 10
-252.2531380750555
 20
9.043917870298174
 30
0.0
 10
-252.1574746005124
 20
9.134923572672392
 30
0.0
 10
-252.0614528358024
 20
9.225212694713377
 30
0.0
 10
-251.977254646598
 20
9.358675781856618
 30
0.0
 10
-251.977254646598
 20
9.535133689019517
 30
0.0
 10
-251.977254646598
 20
9.928894582363512
 30
0.0
 10
-252.1051642361555
 20
10.1177135002817
 30
0.0
 10
-252.2864590605705
 20
10.24024873733708
 30
0.0
 10
-252.4738448178215
 20
10.35812620222345
 30
0.0
 10
-253.0890290342653
 20
10.66088139319305
 30
0.0
 10
-253.8235238762626
 20
10.94428891515395
 30
0.0
 10
-254.5580187182601
 20
11.22733814694823
 30
0.0
 10
-255.0445767648126
 20
11.43335499287434
 30
0.0
 10
-255.2824814355863
 20
11.56180201768217
 30
0.0
 10
-255.5211026866939
 20
11.69024904249
 30
0.0
 10
-255.7192371489496
 20
11.86742352998647
 30
0.0
 10
-255.8754516616867
 20
12.09386291542171
 30
0.0
 10
-256.0320244645906
 20
12.31904828527314
 30
0.0
 10
-256.1083402701249
 20
12.53008119353501
 30
0.0
 10
-256.1101317209591
 20
12.86364933885181
 30
0.0
 10
-256.1133563324605
 20
13.36991334457974
 30
0.0
 10
-255.9990617692424
 20
13.74074366724682
 30
0.0
 10
-255.7765635756422
 20
13.97775261260341
 30
0.0
 10
-255.5544236722087
 20
14.21511984812696
 30
0.0
 10
-255.1950586348803
 20
14.39856441354289
 30
0.0
 10
-254.6981101734898
 20
14.52969861460207
 30
0.0
 10
-254.2025948727666
 20
14.6602953804109
 30
0.0
 10
-253.6035337138303
 20
14.72622077110719
 30
0.0
 10
-252.902001567181
 20
14.72622077110719
 30
0.0
 10
-252.1334691593349
 20
14.72622077110719
 30
0.0
 10
-251.4097230223423
 20
14.65438359265823
 30
0.0
 10
-250.868704870432
 20
14.50945522017628
 30
0.0
 10
-250.3280450086885
 20
14.36524342802801
 30
0.0
 10
-249.9697548418605
 20
14.18359031344619
 30
0.0
 10
-249.793834369948
 20
13.96234613542975
 30
0.0
 10
-249.6189887685358
 20
13.74110195741355
 30
0.0
 10
-249.5308493874961
 20
13.36991334457974
 30
0.0
 10
-249.5308493874961
 20
12.84752628134447
 30
0.0
 10
-249.5308493874961
 20
12.84752628134447
 30
0.0
 10
-249.5308493874961
 20
12.50392601135627
 30
0.0
 10
-249.5308493874961
 20
12.50392601135627
 30
0.0
  0
SPLINE
  5
36D94
102
{ACAD_REACTORS
330
36D9B
102
}
330
36D77
100
AcDbEntity
  8
AM_0
100
AcDbSpline
210
0.0
220
0.0
230
1.0
 70
     9
 71
     3
 72
    14
 73
    10
 74
     0
 42
0.000000001
 43
0.0000000001
 40
0.0
 40
0.0
 40
0.0
 40
0.0
 40
1.0
 40
1.0
 40
1.0
 40
2.0
 40
2.0
 40
2.0
 40
3.0
 40
3.0
 40
3.0
 40
3.0
 10
-261.6958754218078
 20
10.15013876037972
 30
0.0
 10
-261.6213510671075
 20
10.72609020355588
 30
0.0
 10
-261.1942691882485
 20
12.43907549116045
 30
0.0
 10
-260.9062038941189
 20
13.7011526038122
 30
0.0
 10
-260.7517808322161
 20
12.60191837198397
 30
0.0
 10
-260.3608862602066
 20
10.88929137454596
 30
0.0
 10
-260.224735996812
 20
10.15013876037972
 30
0.0
 10
-260.224735996812
 20
10.15013876037972
 30
0.0
 10
-261.6958754218078
 20
10.15013876037972
 30
0.0
 10
-261.6958754218078
 20
10.15013876037972
 30
0.0
  0
LINE
  5
36D95
102
{ACAD_REACTORS
330
36D9B
102
}
330
36D77
100
AcDbEntity
  8
AM_0
100
AcDbLine
 10
-225.5719859317068
 20
18.97075879595523
 30
0.0
 11
-225.5719859317068
 21
3.529241204044775
 31
0.0
  0
LWPOLYLINE
  5
36D96
102
{ACAD_REACTORS
330
36D9B
102
}
330
36D77
100
AcDbEntity
  8
AM_0
100
AcDbPolyline
 90
        5
 70
     0
 43
0.0
 10
-239.5220135771557
 20
14.5511960246117
 10
-236.9176023544828
 20
14.5511960246117
 10
-236.9176023544828
 20
7.983558121570726
 10
-239.5220135771557
 20
7.983558121570726
 10
-239.5220135771557
 20
14.5511960246117
  0
LWPOLYLINE
  5
36D97
102
{ACAD_REACTORS
330
36D9B
102
}
330
36D77
100
AcDbEntity
  8
AM_0
100
AcDbPolyline
 90
        5
 70
     0
 43
0.0
 10
-234.8241129097067
 20
14.5511960246117
 10
-232.2193433968669
 20
14.5511960246117
 10
-232.2193433968669
 20
7.983558121570726
 10
-234.8241129097067
 20
7.983558121570726
 10
-234.8241129097067
 20
14.5511960246117
  0
LINE
  5
36D98
330
36D77
100
AcDbEntity
  8
AM_0
100
AcDbLine
 10
-290.0
 20
22.50000000000006
 30
0.0
 11
-290.0
 21
0.0000000000000611
 31
0.0
  0
LINE
  5
36D99
102
{ACAD_REACTORS
330
36D9B
102
}
330
36D77
100
AcDbEntity
  8
AM_0
100
AcDbLine
 10
-279.4280140682932
 20
18.97075879595523
 30
0.0
 11
-225.5719859317068
 21
18.97075879595523
 31
0.0
  0
LINE
  5
36D9A
102
{ACAD_REACTORS
330
36D9B
102
}
330
36D77
100
AcDbEntity
  8
AM_0
100
AcDbLine
 10
-225.5719859317068
 20
3.529241204044775
 30
0.0
 11
-279.4280140682932
 21
3.529241204044775
 31
0.0
  0
HATCH
  5
36D9B
330
36D77
100
AcDbEntity
  8
AM_8
100
AcDbHatch
 10
0.0
 20
0.0
 30
0.0
210
0.0
220
0.0
230
1.0
  2
SOLID
 70
     1
 71
     1
 91
        8
 92
       16
 93
        4
 72
     1
 10
-234.8241129097067
 20
14.5511960246117
 11
-232.2193433968669
 21
14.5511960246117
 72
     1
 10
-232.2193433968669
 20
14.5511960246117
 11
-232.2193433968669
 21
7.983558121570726
 72
     1
 10
-232.2193433968669
 20
7.983558121570726
 11
-234.8241129097067
 21
7.983558121570726
 72
     1
 10
-234.8241129097067
 20
7.983558121570726
 11
-234.8241129097067
 21
14.5511960246117
 97
        1
330
36D97
 92
       16
 93
        4
 72
     1
 10
-239.5220135771557
 20
14.5511960246117
 11
-236.9176023544828
 21
14.5511960246117
 72
     1
 10
-236.9176023544828
 20
14.5511960246117
 11
-236.9176023544828
 21
7.983558121570726
 72
     1
 10
-236.9176023544828
 20
7.983558121570726
 11
-239.5220135771557
 21
7.983558121570726
 72
     1
 10
-239.5220135771557
 20
7.983558121570726
 11
-239.5220135771557
 21
14.5511960246117
 97
        1
330
36D96
 92
        0
 93
        1
 72
     4
 94
        3
 73
     0
 74
     0
 95
       14
 96
       10
 40
0.0
 40
0.0
 40
0.0
 40
0.0
 40
1.0
 40
1.0
 40
1.0
 40
2.0
 40
2.0
 40
2.0
 40
3.0
 40
3.0
 40
3.0
 40
3.0
 10
-261.6958754218078
 20
10.15013876037972
 10
-261.6213510671075
 20
10.72609020355588
 10
-261.1942691882485
 20
12.43907549116045
 10
-260.9062038941189
 20
13.7011526038122
 10
-260.7517808322161
 20
12.60191837198397
 10
-260.3608862602066
 20
10.88929137454596
 10
-260.224735996812
 20
10.15013876037972
 10
-260.224735996812
 20
10.15013876037972
 10
-261.6958754218078
 20
10.15013876037972
 10
-261.6958754218078
 20
10.15013876037972
 97
        0
 97
        1
330
36D94
 92
       16
 93
        1
 72
     4
 94
        3
 73
     0
 74
     1
 95
      110
 96
      106
 40
0.0
 40
0.0
 40
0.0
 40
0.0
 40
1.0
 40
1.0
 40
1.0
 40
2.0
 40
2.0
 40
2.0
 40
3.0
 40
3.0
 40
3.0
 40
4.0
 40
4.0
 40
4.0
 40
5.0
 40
5.0
 40
5.0
 40
6.0
 40
6.0
 40
6.0
 40
7.0
 40
7.0
 40
7.0
 40
8.0
 40
8.0
 40
8.0
 40
9.0
 40
9.0
 40
9.0
 40
10.0
 40
10.0
 40
10.0
 40
11.0
 40
11.0
 40
11.0
 40
12.0
 40
12.0
 40
12.0
 40
13.0
 40
13.0
 40
13.0
 40
14.0
 40
14.0
 40
14.0
 40
15.0
 40
15.0
 40
15.0
 40
16.0
 40
16.0
 40
16.0
 40
17.0
 40
17.0
 40
17.0
 40
18.0
 40
18.0
 40
18.0
 40
19.0
 40
19.0
 40
19.0
 40
20.0
 40
20.0
 40
20.0
 40
21.0
 40
21.0
 40
21.0
 40
22.0
 40
22.0
 40
22.0
 40
23.0
 40
23.0
 40
23.0
 40
24.0
 40
24.0
 40
24.0
 40
25.0
 40
25.0
 40
25.0
 40
26.0
 40
26.0
 40
26.0
 40
27.0
 40
27.0
 40
27.0
 40
28.0
 40
28.0
 40
28.0
 40
29.0
 40
29.0
 40
29.0
 40
30.0
 40
30.0
 40
30.0
 40
31.0
 40
31.0
 40
31.0
 40
32.0
 40
32.0
 40
32.0
 40
33.0
 40
33.0
 40
33.0
 40
34.0
 40
34.0
 40
34.0
 40
35.0
 40
35.0
 40
35.0
 40
35.0
 10
-249.5308493874961
 20
12.50392601135627
 10
-249.5308493874961
 20
12.50392601135627
 10
-252.1757473990207
 20
12.50392601135627
 10
-252.1757473990207
 20
12.50392601135627
 10
-252.1757473990207
 20
12.50392601135627
 10
-252.1757473990207
 20
13.07092020036174
 10
-252.1757473990207
 20
13.07092020036174
 10
-252.1757473990207
 20
13.30022590713156
 10
-252.2248331518761
 20
13.41201243918204
 10
-252.2950580245744
 20
13.47489236346041
 10
-252.3659994776064
 20
13.53866801315576
 10
-252.5
 20
13.66747332813048
 10
-252.8056215123043
 20
13.66747332813048
 10
-253.0818632309287
 20
13.66747332813048
 10
-253.2058316286512
 20
13.58882863651161
 10
-253.3308748968742
 20
13.47489236346041
 10
-253.3720782660594
 20
13.43888420169407
 10
-253.4620090979332
 20
13.22086463517928
 10
-253.4620090979332
 20
13.09223846528795
 10
-253.4620090979332
 20
12.87171086760532
 10
-253.4100570237431
 20
12.70761397119816
 10
-253.3065111655299
 20
12.59905205064933
 10
-253.208339659819
 20
12.48672808334862
 10
-252.8152953468086
 20
12.26010955282993
 10
-252.3570422234356
 20
12.10120786384158
 10
-251.0442670521777
 20
11.63883440355016
 10
-250.1209532922619
 20
11.2414906085379
 10
-249.7795027632748
 20
10.94805096190589
 10
-249.4384105244547
 20
10.65926908744251
 10
-249.2642815033762
 20
10.29757516402947
 10
-249.2642815033762
 20
9.64369560956834
 10
-249.2642815033762
 20
9.174514636107006
 10
-249.358511817252
 20
8.826435739033627
 10
-249.5480473155041
 20
8.601429514265703
 10
-249.737582813756
 20
8.375348418997191
 10
-250.1037553642542
 20
8.187246081412525
 10
-250.6458483866651
 20
8.036047631011002
 10
-251.1886579894094
 20
7.884849180609649
 10
-251.918853349405
 20
7.809249955408916
 10
-252.6390165847292
 20
7.809249955408916
 10
-253.429046402585
 20
7.809249955408916
 10
-254.1044233670558
 20
7.895956175781237
 10
-254.6629977371407
 20
8.069726906692836
 10
-255.2219303973924
 20
8.24260191218741
 10
-255.5877446577238
 20
8.465279250871049
 10
-255.760440518135
 20
8.736146616992983
 10
-255.9338529588797
 20
9.006118257698063
 10
-256.0209174694188
 20
9.39253420262196
 10
-256.0209174694188
 20
9.893244710763952
 10
-256.0209174694188
 20
9.893244710763952
 10
-256.0209174694188
 20
10.29166337627686
 10
-256.0209174694188
 20
10.29166337627686
 10
-256.0209174694188
 20
10.29166337627686
 10
-253.3649124627228
 20
10.29166337627686
 10
-253.3649124627228
 20
10.29166337627686
 10
-253.3649124627228
 20
10.29166337627686
 10
-253.3649124627228
 20
9.587981488626724
 10
-253.3649124627228
 20
9.587981488626724
 10
-253.3649124627228
 20
9.334849485762561
 10
-253.2825057243524
 20
9.197266061700759
 10
-253.2058316286512
 20
9.127220334085678
 10
-253.12915753295
 20
9.057174606470824
 10
-252.9449963872004
 20
8.998415019111064
 10
-252.7493699561123
 20
8.998415019111064
 10
-252.5530269446905
 20
8.998415019111064
 10
-252.2531380750555
 20
9.043917870298174
 10
-252.1574746005124
 20
9.134923572672392
 10
-252.0614528358024
 20
9.225212694713377
 10
-251.977254646598
 20
9.358675781856618
 10
-251.977254646598
 20
9.535133689019517
 10
-251.977254646598
 20
9.928894582363512
 10
-252.1051642361555
 20
10.1177135002817
 10
-252.2864590605705
 20
10.24024873733708
 10
-252.4738448178215
 20
10.35812620222345
 10
-253.0890290342653
 20
10.66088139319305
 10
-253.8235238762626
 20
10.94428891515395
 10
-254.5580187182601
 20
11.22733814694823
 10
-255.0445767648126
 20
11.43335499287434
 10
-255.2824814355863
 20
11.56180201768217
 10
-255.5211026866939
 20
11.69024904249
 10
-255.7192371489496
 20
11.86742352998647
 10
-255.8754516616867
 20
12.09386291542171
 10
-256.0320244645906
 20
12.31904828527314
 10
-256.1083402701249
 20
12.53008119353501
 10
-256.1101317209591
 20
12.86364933885181
 10
-256.1133563324605
 20
13.36991334457974
 10
-255.9990617692424
 20
13.74074366724682
 10
-255.7765635756422
 20
13.97775261260341
 10
-255.5544236722087
 20
14.21511984812696
 10
-255.1950586348803
 20
14.39856441354289
 10
-254.6981101734898
 20
14.52969861460207
 10
-254.2025948727666
 20
14.6602953804109
 10
-253.6035337138303
 20
14.72622077110719
 10
-252.902001567181
 20
14.72622077110719
 10
-252.1334691593349
 20
14.72622077110719
 10
-251.4097230223423
 20
14.65438359265823
 10
-250.868704870432
 20
14.50945522017628
 10
-250.3280450086885
 20
14.36524342802801
 10
-249.9697548418605
 20
14.18359031344619
 10
-249.793834369948
 20
13.96234613542975
 10
-249.6189887685358
 20
13.74110195741355
 10
-249.5308493874961
 20
13.36991334457974
 10
-249.5308493874961
 20
12.84752628134447
 10
-249.5308493874961
 20
12.84752628134447
 10
-249.5308493874961
 20
12.50392601135627
 10
-249.5308493874961
 20
12.50392601135627
 97
        0
 97
        1
330
36D93
 92
       16
 93
       11
 72
     1
 10
-265.9240576805453
 20
14.5511960246117
 11
-267.5403046231065
 21
11.58562831377622
 72
     1
 10
-267.5403046231065
 20
11.58562831377622
 11
-265.7674848776414
 21
7.983558121570726
 72
     1
 10
-265.7674848776413
 20
7.983558121570726
 11
-268.7133466293013
 21
7.983558121570726
 72
     1
 10
-268.7133466293013
 20
7.983558121570726
 11
-270.1117531504311
 21
11.3566808971731
 72
     1
 10
-270.1117531504311
 20
11.3566808971731
 11
-270.1117531504311
 21
7.983558121570726
 72
     1
 10
-270.1117531504311
 20
7.983558121570726
 11
-272.6950252532611
 21
7.983558121570726
 72
     1
 10
-272.6950252532611
 20
7.983558121570726
 11
-272.6950252532611
 21
14.5511960246117
 72
     1
 10
-272.6950252532611
 20
14.5511960246117
 11
-270.1117531504311
 21
14.5511960246117
 72
     1
 10
-270.1117531504311
 20
14.5511960246117
 11
-270.1117531504311
 21
11.51486600582769
 72
     1
 10
-270.1117531504311
 20
11.51486600582769
 11
-268.5990520660832
 21
14.5511960246117
 72
     1
 10
-268.5990520660832
 20
14.5511960246117
 11
-265.9240576805453
 21
14.5511960246117
 97
        1
330
36D92
 92
       16
 93
        8
 72
     1
 10
-263.0613192475894
 20
14.5511960246117
 11
-264.4962713657357
 21
7.983558121570726
 72
     1
 10
-264.4962713657357
 20
7.983558121570726
 11
-261.9147907137399
 21
7.983558121570726
 72
     1
 10
-261.9147907137398
 20
7.983558121570726
 11
-261.7567847501687
 21
8.447006452362803
 72
     1
 10
-261.7567847501687
 20
8.447006452362803
 11
-260.070671225076
 21
8.447006452362803
 72
     1
 10
-260.070671225076
 20
8.447006452362803
 11
-259.916248163173
 21
7.983558121570726
 72
     1
 10
-259.916248163173
 20
7.983558121570726
 11
-257.3662970458581
 21
7.983558121570726
 72
     1
 10
-257.3662970458581
 20
7.983558121570726
 11
-258.9796776670847
 21
14.5511960246117
 72
     1
 10
-258.9796776670847
 20
14.5511960246117
 11
-263.0613192475894
 21
14.5511960246117
 97
        1
330
36D91
 92
       16
 93
       12
 72
     1
 10
-241.5162566457203
 20
14.5511960246117
 11
-241.5162566457203
 21
7.983558121570726
 72
     1
 10
-241.5162566457203
 20
7.983558121570726
 11
-244.0984538780498
 21
7.983558121570726
 72
     1
 10
-244.0984538780498
 20
7.983558121570726
 11
-244.0984538780498
 21
10.36027594322441
 72
     1
 10
-244.0984538780498
 20
10.36027594322441
 11
-245.1808484720372
 21
10.36027594322441
 72
     1
 10
-245.1808484720372
 20
10.36027594322441
 11
-245.1808484720372
 21
7.983558121570726
 72
     1
 10
-245.1808484720372
 20
7.983558121570726
 11
-247.7619708338662
 21
7.983558121570726
 72
     1
 10
-247.7619708338662
 20
7.983558121570726
 11
-247.7619708338662
 21
14.5511960246117
 72
     1
 10
-247.7619708338662
 20
14.5511960246117
 11
-245.1808484720372
 21
14.5511960246117
 72
     1
 10
-245.1808484720372
 20
14.5511960246117
 11
-245.1808484720372
 21
12.60191837198387
 72
     1
 10
-245.1808484720372
 20
12.60191837198387
 11
-244.0984538780498
 21
12.60191837198387
 72
     1
 10
-244.0984538780498
 20
12.60191837198387
 11
-244.0984538780498
 21
14.5511960246117
 72
     1
 10
-244.0984538780498
 20
14.5511960246117
 11
-241.5162566457203
 21
14.5511960246117
 97
        1
330
36D8F
 92
        1
 93
        4
 72
     1
 10
-225.5719859317068
 20
3.529241204044775
 11
-279.4280140682932
 21
3.529241204044775
 72
     1
 10
-279.4280140682932
 20
3.529241204044775
 11
-279.4280140682932
 21
18.97075879595523
 72
     1
 10
-279.4280140682932
 20
18.97075879595523
 11
-225.5719859317068
 21
18.97075879595523
 72
     1
 10
-225.5719859317068
 20
18.97075879595523
 11
-225.5719859317068
 21
3.529241204044775
 97
        4
330
36D9A
330
36D90
330
36D99
330
36D95
 75
     0
 76
     1
 98
        1
 10
-5.827130324141709
 20
251.6984944522294
450
        0
451
        0
460
0.0
461
0.0
452
        0
462
0.0
453
        2
463
0.0
 63
     5
421
      255
463
1.0
 63
   254
421
 13750783
470

  0
LINE
  5
36D9C
330
36D77
100
AcDbEntity
  8
AM_1
100
AcDbLine
 10
-71.5
 20
11.25000000000006
 30
0.0
 11
-0.0000000000000071
 21
11.25000000000006
 31
0.0
  0
MTEXT
  5
36D9D
330
36D77
100
AcDbEntity
  8
AM_6
100
AcDbMText
 10
-58.75000000000001
 20
7.437500000000122
 30
0.0
 40
4.0
 41
0.0
 46
0.0
 71
     5
 72
     5
  1
\T1.4;\W0.59;作　成　日
 73
     1
 44
1.0
  0
LINE
  5
36D9E
330
36D77
100
AcDbEntity
  8
AM_0
100
AcDbLine
 10
-215.0
 20
22.50000000000006
 30
0.0
 11
-215.0
 21
0.0000000000000611
 31
0.0
  0
ENDBLK
  5
36D9F
330
36D77
100
AcDbEntity
  8
0
100
AcDbBlockEnd
  0
BLOCK
  5
37609
330
37608
100
AcDbEntity
  8
0
100
AcDbBlockBegin
  2
_None
 70
     0
 10
0.0
 20
0.0
 30
0.0
  3
_None
  1
Acad:XRef
  0
ENDBLK
  5
3760A
330
37608
100
AcDbEntity
  8
0
100
AcDbBlockEnd
  0
ENDSEC
  0
SECTION
  2
ENTITIES
  0
TEXT
  5
9B13
330
18
100
AcDbEntity
  8
文字
 60
     1
100
AcDbText
 10
-6825.0
 20
-4847.500036494793
 30
0.0
 40
40.0
  1
!GENTITLE-LL
100
AcDbText
  0
TEXT
  5
9B16
330
18
100
AcDbEntity
  8
文字
 60
     1
100
AcDbText
 10
975.0
 20
-4847.500015640626
 30
0.0
 40
40.0
  1
!GENTITLE-INSERT
100
AcDbText
  0
TEXT
  5
9B17
330
18
100
AcDbEntity
  8
文字
 60
     1
100
AcDbText
 10
973.3809129550864
 20
554.9396013259966
 30
0.0
 40
40.0
  1
!GENTITLE-MAX
100
AcDbText
  0
TEXT
  5
9B18
330
18
100
AcDbEntity
  8
文字
 60
     1
100
AcDbText
 10
975.0
 20
392.4999650763675
 30
0.0
 40
40.0
  1
!GENTITLE-RU
100
AcDbText
  0
TEXT
  5
36134
330
18
100
AcDbEntity
  8
文字
100
AcDbText
 10
-7212.960066631515
 20
-4166.601633341887
 30
0.0
 40
16.0
  1
2
 41
0.83
 11
-7212.960066631515
 21
-4158.601633341887
 31
0.0
100
AcDbText
 73
     2
  0
TEXT
  5
36135
330
18
100
AcDbEntity
  8
文字
100
AcDbText
 10
-8357.81001684806
 20
-4198.760495695168
 30
0.0
 40
48.0
  1
※基礎サイズは、Vo=30m/s（地耐力50kN/m ）で表記。
 41
0.83
 11
-8357.81001684806
 21
-4198.760495695168
 31
0.0
100
AcDbText
 73
     1
  0
LINE
  5
36BB7
330
18
100
AcDbEntity
  8
一般
  6
Continuous
 62
     7
370
    18
100
AcDbLine
 10
-4117.133192695097
 20
-3266.459965837309
 30
0.0
 11
-4117.133192695097
 21
-2786.395552321754
 31
0.0
  0
LINE
  5
36BB8
330
18
100
AcDbEntity
  8
一般
  6
Continuous
 62
     7
370
    18
100
AcDbLine
 10
-3617.383067695094
 20
-2786.395552321754
 30
0.0
 11
-3617.383067695094
 21
-3266.459965837309
 31
0.0
  0
LINE
  5
36BB9
330
18
100
AcDbEntity
  8
一般
  6
Continuous
 62
     7
370
    18
100
AcDbLine
 10
-4117.133192695097
 20
-2786.395552321754
 30
0.0
 11
-3617.383067695094
 21
-2786.395552321754
 31
0.0
  0
LINE
  5
36BBF
330
18
100
AcDbEntity
  8
一般
  6
Continuous
 62
     7
370
     9
100
AcDbLine
 10
-4195.143107126276
 20
-2457.132085414221
 30
0.0
 11
-4779.738435665772
 21
-2457.132085414221
 31
0.0
  0
LINE
  5
36BC0
330
18
100
AcDbEntity
  8
一般
  6
Continuous
 62
     7
370
     9
100
AcDbLine
 10
-3940.995644640677
 20
-2711.27954789982
 30
0.0
 11
-4195.143107126276
 21
-2457.132085414221
 31
0.0
  0
LINE
  5
36BC4
330
18
100
AcDbEntity
  8
一般
  6
Continuous
 62
     7
370
     9
100
AcDbLine
 10
-4294.738122319337
 20
-1230.500456335298
 30
0.0
 11
-4895.286917748916
 21
-1230.500456335298
 31
0.0
  0
LINE
  5
36BC5
330
18
100
AcDbEntity
  8
一般
  6
Continuous
 62
     7
370
     9
100
AcDbLine
 10
-4107.138190195092
 20
-1418.100388459543
 30
0.0
 11
-4294.738122319337
 21
-1230.500456335298
 31
0.0
  0
INSERT
  5
36E7F
330
18
100
AcDbEntity
  8
AM_0
370
     0
100
AcDbBlockReference
  2
PS_A3
 10
-5532.923653964449
 20
-2555.714223876877
 30
0.0
 41
15.0
 42
15.0
 43
15.0
1001
GENIUS_GENOREF_13
1005
0
1001
GENIUS_GENODEF_13
1002
{
1000
HIER
1070
     0
1002
}
1002
{
1000
MANEDIT
1070
     0
1002
}
1002
{
1000
NOSEL
1070
     0
1002
}
1002
{
1000
BEHIND
1070
     0
1002
}
1002
{
1000
OTHER
1070
     0
1002
}
1002
{
1000
REACTOR
1002
}
1001
GENIUS_GENOBJ-N-SDF_13
1002
{
1000
OWNER
1000
GEN
1002
}
1001
GENIUS_GENSCREG_15
1040
15.0
1040
1.0
1011
-8772.923641366811
1021
-4805.714219485432
1031
0.0
1011
-2457.923653964449
1021
-335.7142238768765
1031
0.0
1070
     3
  0
INSERT
  5
36E80
330
18
100
AcDbEntity
  8
AM_0
370
     0
100
AcDbBlockReference
 66
     1
  2
PS_承認図(A3)
 10
-2607.923653964449
 20
-4633.214223876877
 30
0.0
 41
15.0
 42
15.0
 43
15.0
1001
GENIUS_GENOREF_13
1005
0
  0
ATTRIB
  5
36E81
330
36E80
100
AcDbEntity
  8
AM_6
100
AcDbText
 10
-3717.923653964449
 20
-4595.714223876877
 30
0.0
 40
75.0
  1

 41
0.8300000000000001
 11
-3717.923653964449
 21
-4558.214223876877
 31
0.0
100
AcDbAttribute
  2
ZUBAN{7.2}
 70
     0
 74
     2
280
     0
  0
ATTRIB
  5
36E82
330
36E80
100
AcDbEntity
  8
AM_6
100
AcDbText
 10
-3087.923653964449
 20
-4595.714223876877
 30
0.0
 40
75.0
  1

 41
0.8300000000000001
 11
-3087.923653964449
 21
-4558.214223876877
 31
0.0
100
AcDbAttribute
  2
KAIBAN{2}
 70
     0
 74
     2
280
     0
  0
ATTRIB
  5
36E83
330
36E80
100
AcDbEntity
  8
AM_6
100
AcDbText
 10
-3717.923653964449
 20
-4400.714223876877
 30
0.0
 40
60.0
  1

 41
0.83
 11
-3717.923653964449
 21
-4370.714223876877
 31
0.0
100
AcDbAttribute
  2
SZUBAN{9}
 70
     0
 74
     2
280
     0
  0
ATTRIB
  5
36E84
330
36E80
100
AcDbEntity
  8
AM_6
100
AcDbText
 10
-3087.923653964449
 20
-4400.714223876877
 30
0.0
 40
60.0
  1

 41
0.83
 11
-3087.923653964449
 21
-4370.714223876877
 31
0.0
100
AcDbAttribute
  2
SKAIBAN{2}
 70
     0
 74
     2
280
     0
  0
ATTRIB
  5
36E85
330
36E80
100
AcDbEntity
  8
AM_6
100
AcDbText
 10
-2802.923653964449
 20
-4434.464223876877
 30
0.0
 40
60.0
  1

 41
0.83
 72
     1
 11
-2802.923653964449
 21
-4404.464223876877
 31
0.0
100
AcDbAttribute
  2
PAGE{2}
 70
     0
 74
     2
280
     0
  0
ATTRIB
  5
36E86
330
36E80
100
AcDbEntity
  8
AM_6
100
AcDbText
 10
-2802.923653964449
 20
-4554.464223876877
 30
0.0
 40
60.0
  1

 41
0.83
 72
     1
 11
-2802.923653964449
 21
-4524.464223876877
 31
0.0
100
AcDbAttribute
  2
TOTALPAGE{2}
 70
     0
 74
     2
280
     0
  0
ATTRIB
  5
36E87
330
36E80
100
AcDbEntity
  8
AM_6
100
AcDbText
 10
-5652.923653964449
 20
-4426.964223876877
 30
0.0
 40
75.0
  1
サインボード
 41
0.8299999999999998
 11
-5652.923653964449
 21
-4389.464223876877
 31
0.0
100
AcDbAttribute
  2
ZUMEI1{16.8}
 70
     0
 74
     2
280
     0
  0
ATTRIB
  5
36E88
330
36E80
100
AcDbEntity
  8
AM_6
100
AcDbText
 10
-5652.923653964449
 20
-4595.714223876877
 30
0.0
 40
75.0
  1
SBO-PA-100-1000
 41
0.8299999999999998
 11
-5652.923653964449
 21
-4558.214223876877
 31
0.0
100
AcDbAttribute
  2
ZUMEI2{16.8}
 70
     0
 74
     2
280
     0
  0
ATTRIB
  5
36E89
330
36E80
100
AcDbEntity
  8
AM_6
100
AcDbText
 10
-3174.480796821592
 20
-4430.714223876877
 30
0.0
 40
60.0
  1
1:15
 41
0.83
 72
     1
 11
-3087.923653964449
 21
-4400.714223876877
 31
0.0
100
AcDbAttribute
  2
GEN-TITLE-SCA
 70
     0
 74
     2
280
     0
  0
ATTRIB
  5
36E8A
330
36E80
100
AcDbEntity
  8
AM_6
100
AcDbText
 10
-5300.423653964449
 20
-4381.964223876877
 30
0.0
 40
60.0
  1

 41
0.83
 11
-5300.423653964449
 21
-4351.964223876877
 31
0.0
100
AcDbAttribute
  2
SAKUSEI{6.5}
 70
     0
 74
     2
280
     0
  0
ATTRIB
  5
36E8B
330
36E80
100
AcDbEntity
  8
AM_6
100
AcDbText
 10
-5300.423653964449
 20
-4494.464223876877
 30
0.0
 40
60.0
  1

 41
0.83
 11
-5300.423653964449
 21
-4464.464223876877
 31
0.0
100
AcDbAttribute
  2
SYUSEI1{6.5}
 70
     0
 74
     2
280
     0
  0
ATTRIB
  5
36E8C
330
36E80
100
AcDbEntity
  8
AM_6
100
AcDbText
 10
-5300.423653964449
 20
-4606.964223876877
 30
0.0
 40
60.0
  1

 41
0.83
 11
-5300.423653964449
 21
-4576.964223876877
 31
0.0
100
AcDbAttribute
  2
SYUSEI2{6.5}
 70
     0
 74
     2
280
     0
  0
ATTRIB
  5
36E8D
330
36E80
100
AcDbEntity
  8
AM_6
100
AcDbText
 10
-4715.423653964449
 20
-4558.214223876877
 30
0.0
 40
60.0
  1

 41
0.83
 72
     1
 11
-4715.423653964449
 21
-4528.214223876877
 31
0.0
100
AcDbAttribute
  2
TANTO{5}
 70
     0
 74
     2
280
     0
  0
ATTRIB
  5
36E8E
330
36E80
100
AcDbEntity
  8
AM_6
100
AcDbText
 10
-4400.423653964449
 20
-4558.214223876877
 30
0.0
 40
60.0
  1

 41
0.83
 72
     1
 11
-4400.423653964449
 21
-4528.214223876877
 31
0.0
100
AcDbAttribute
  2
SAKUZU{5}
 70
     0
 74
     2
280
     0
  0
ATTRIB
  5
36E8F
330
36E80
100
AcDbEntity
  8
AM_6
100
AcDbText
 10
-4085.423653964449
 20
-4558.214223876877
 30
0.0
 40
60.0
  1

 41
0.83
 72
     1
 11
-4085.423653964449
 21
-4528.214223876877
 31
0.0
100
AcDbAttribute
  2
KENZU{5}
 70
     0
 74
     2
280
     0
  0
SEQEND
  5
36E90
330
36E80
100
AcDbEntity
  8
AM_0
370
     0
  0
TEXT
  5
36E91
330
18
100
AcDbEntity
  8
AM_6
100
AcDbText
 10
-3177.60222539302
 20
-4578.839223876876
 30
0.0
 40
60.0
  1
2024.03.22
 41
0.83
 72
     1
 11
-2964.173653964449
 21
-4548.839223876876
 31
0.0
100
AcDbText
 73
     2
  0
TEXT
  5
37672
330
18
100
AcDbEntity
  8
文字
100
AcDbText
 10
-8357.81001684806
 20
-4114.825079289032
 30
0.0
 40
48.0
  1
重量：3kg 
 41
0.83
 72
     4
 11
-8221.02601684806
 21
-4098.825079289032
 31
0.0
100
AcDbText
  0
LINE
  5
378AF
330
18
100
AcDbEntity
  8
一般
  6
Continuous
 62
     7
370
    30
100
AcDbLine
 10
-6822.70716983713
 20
-3110.894889331681
 30
0.0
 11
-5892.854016400503
 21
-3110.894889331681
 31
0.0
  0
LINE
  5
378B3
330
18
100
AcDbEntity
  8
一般
  6
Continuous
 62
     7
370
    18
100
AcDbLine
 10
-6428.321619762569
 20
-1485.10701303481
 30
0.0
 11
-6401.335113012573
 21
-1458.120506284808
 31
0.0
  0
LINE
  5
378B4
330
18
100
AcDbEntity
  8
一般
  6
Continuous
 62
     7
370
    18
100
AcDbLine
 10
-6324.373593762568
 20
-1485.10701303481
 30
0.0
 11
-6351.36010051257
 21
-1458.120506284808
 31
0.0
  0
LINE
  5
378B5
330
18
100
AcDbEntity
  8
一般
  6
Continuous
 62
     7
370
    18
100
AcDbLine
 10
-6428.321619762569
 20
-1381.158987034809
 30
0.0
 11
-6401.335113012573
 21
-1408.145493784812
 31
0.0
  0
LINE
  5
378B6
330
18
100
AcDbEntity
  8
一般
  6
Continuous
 62
     7
370
    18
100
AcDbLine
 10
-6324.373593762568
 20
-1381.158987034809
 30
0.0
 11
-6351.36010051257
 21
-1408.145493784812
 31
0.0
  0
LINE
  5
378BB
330
18
100
AcDbEntity
  8
AM_2
 48
0.5
100
AcDbLine
 10
-6276.347606762569
 20
-3449.167845295922
 30
0.0
 11
-6311.985678094775
 21
-3510.894889331681
 31
0.0
  0
LINE
  5
378BC
330
18
100
AcDbEntity
  8
AM_2
 48
0.5
100
AcDbLine
 10
-6301.505054656494
 20
-3492.741889455046
 30
0.0
 11
-6296.641036386643
 21
-3510.894889331681
 31
0.0
  0
LINE
  5
378BD
330
18
100
AcDbEntity
  8
AM_2
 48
0.5
100
AcDbLine
 10
-6291.267020547371
 20
-3410.894889331681
 30
0.0
 11
-6349.001959728261
 21
-3510.894889331681
 31
0.0
  0
LINE
  5
378BE
330
18
100
AcDbEntity
  8
AM_2
 48
0.5
100
AcDbLine
 10
-6306.612806309612
 20
-3410.894889331681
 30
0.0
 11
-6301.748488243231
 21
-3429.048652150372
 31
0.0
  0
LINE
  5
378BF
330
18
100
AcDbEntity
  8
AM_2
 48
0.5
100
AcDbLine
 10
-6338.521446410645
 20
-3492.74208018992
 30
0.0
 11
-6333.657479247383
 21
-3510.894889331681
 31
0.0
  0
LINE
  5
378C0
330
18
100
AcDbEntity
  8
AM_2
100
AcDbLine
 10
-6276.347606762569
 20
-3144.017420734526
 30
0.0
 11
-6326.372594262566
 21
-3203.634879307122
 31
0.0
  0
LINE
  5
378C1
330
18
100
AcDbEntity
  8
AM_2
100
AcDbLine
 10
-6276.347606762569
 20
-3128.460182465925
 30
0.0
 11
-6326.372594262566
 21
-3188.077641038522
 31
0.0
  0
LINE
  5
378C2
330
18
100
AcDbEntity
  8
AM_2
100
AcDbLine
 10
-6276.347606762569
 20
-3159.574659003129
 30
0.0
 11
-6326.372594262566
 21
-3219.192117575727
 31
0.0
  0
LINE
  5
378C3
330
18
100
AcDbEntity
  8
AM_2
100
AcDbLine
 10
-6426.322619262571
 20
-3141.162377892288
 30
0.0
 11
-6476.347606762569
 21
-3200.779836464884
 31
0.0
  0
LINE
  5
378C4
330
18
100
AcDbEntity
  8
AM_2
100
AcDbLine
 10
-6426.322619262571
 20
-3125.605139623688
 30
0.0
 11
-6476.347606762569
 21
-3185.222598196284
 31
0.0
  0
LINE
  5
378C5
330
18
100
AcDbEntity
  8
AM_2
100
AcDbLine
 10
-6426.322619262571
 20
-3156.719616160894
 30
0.0
 11
-6476.347606762569
 21
-3216.337074733491
 31
0.0
  0
LINE
  5
378C8
330
18
100
AcDbEntity
  8
AM_2
 48
0.5
100
AcDbLine
 10
-6328.283302180857
 20
-3410.894889331681
 30
0.0
 11
-6386.018241361747
 21
-3510.894889331681
 31
0.0
  0
LINE
  5
378C9
330
18
100
AcDbEntity
  8
AM_2
 48
0.5
100
AcDbLine
 10
-6343.629087943098
 20
-3410.894889331681
 30
0.0
 11
-6338.764769876717
 21
-3429.048652150372
 31
0.0
  0
LINE
  5
378CA
330
18
100
AcDbEntity
  8
AM_2
 48
0.5
100
AcDbLine
 10
-6375.537728044131
 20
-3492.74208018992
 30
0.0
 11
-6370.673760880869
 21
-3510.894889331681
 31
0.0
  0
LINE
  5
378CB
330
18
100
AcDbEntity
  8
AM_2
 48
0.5
100
AcDbLine
 10
-6365.299583814343
 20
-3410.894889331681
 30
0.0
 11
-6423.034522995233
 21
-3510.894889331681
 31
0.0
  0
LINE
  5
378CC
330
18
100
AcDbEntity
  8
AM_2
 48
0.5
100
AcDbLine
 10
-6380.645369576584
 20
-3410.894889331681
 30
0.0
 11
-6375.781051510203
 21
-3429.048652150372
 31
0.0
  0
LINE
  5
378CD
330
18
100
AcDbEntity
  8
AM_2
 48
0.5
100
AcDbLine
 10
-6412.554009677617
 20
-3492.74208018992
 30
0.0
 11
-6407.690042514355
 21
-3510.894889331681
 31
0.0
  0
LINE
  5
378CE
330
18
100
AcDbEntity
  8
AM_2
 48
0.5
100
AcDbLine
 10
-6402.315865447829
 20
-3410.894889331681
 30
0.0
 11
-6460.050804628719
 21
-3510.894889331681
 31
0.0
  0
LINE
  5
378CF
330
18
100
AcDbEntity
  8
AM_2
 48
0.5
100
AcDbLine
 10
-6417.66165121007
 20
-3410.894889331681
 30
0.0
 11
-6412.797333143689
 21
-3429.048652150372
 31
0.0
  0
LINE
  5
378D0
330
18
100
AcDbEntity
  8
AM_2
 48
0.5
100
AcDbLine
 10
-6449.570291311103
 20
-3492.74208018992
 30
0.0
 11
-6444.706324147841
 21
-3510.894889331681
 31
0.0
  0
LINE
  5
378D1
330
18
100
AcDbEntity
  8
AM_2
 48
0.5
100
AcDbLine
 10
-6439.332147081315
 20
-3410.894889331681
 30
0.0
 11
-6476.347606762569
 21
-3475.007643595231
 31
0.0
  0
LINE
  5
378D2
330
18
100
AcDbEntity
  8
AM_2
 48
0.5
100
AcDbLine
 10
-6454.677932843556
 20
-3410.894889331681
 30
0.0
 11
-6449.813614777175
 21
-3429.048652150372
 31
0.0
  0
LINE
  5
378D4
330
18
100
AcDbEntity
  8
AM_2
100
AcDbLine
 10
-6276.347606762569
 20
-3326.352177601494
 30
0.0
 11
-6326.372594262566
 21
-3385.96963617409
 31
0.0
  0
LINE
  5
378D5
330
18
100
AcDbEntity
  8
AM_2
100
AcDbLine
 10
-6276.347606762569
 20
-3310.794939332892
 30
0.0
 11
-6326.372594262566
 21
-3370.412397905488
 31
0.0
  0
LINE
  5
378D6
330
18
100
AcDbEntity
  8
AM_2
100
AcDbLine
 10
-6276.347606762569
 20
-3341.909415870097
 30
0.0
 11
-6326.372594262566
 21
-3401.526874442693
 31
0.0
  0
LINE
  5
378D7
330
18
100
AcDbEntity
  8
AM_2
100
AcDbLine
 10
-6276.347606762569
 20
-3401.962317766375
 30
0.0
 11
-6283.842924268482
 21
-3410.894889331681
 31
0.0
  0
LINE
  5
378D8
330
18
100
AcDbEntity
  8
AM_2
100
AcDbLine
 10
-6426.322619262571
 20
-3323.497134759255
 30
0.0
 11
-6476.347606762569
 21
-3383.114593331852
 31
0.0
  0
LINE
  5
378D9
330
18
100
AcDbEntity
  8
AM_2
100
AcDbLine
 10
-6426.322619262571
 20
-3307.939896490655
 30
0.0
 11
-6476.347606762569
 21
-3367.557355063251
 31
0.0
  0
LINE
  5
378DA
330
18
100
AcDbEntity
  8
AM_2
100
AcDbLine
 10
-6426.322619262571
 20
-3339.054373027861
 30
0.0
 11
-6476.347606762569
 21
-3398.671831600459
 31
0.0
  0
TEXT
  5
3798D
330
18
100
AcDbEntity
  8
一般
  6
Continuous
 62
     7
100
AcDbText
 10
-6474.708935199623
 20
-3812.943679738736
 30
0.0
 40
36.5066490238037
  1
【正面図】
 41
0.8299999999999998
100
AcDbText
  0
TEXT
  5
3798E
330
18
100
AcDbEntity
  8
一般
  6
Continuous
 62
     7
100
AcDbText
 10
-6474.708935199623
 20
-1628.77741825594
 30
0.0
 40
36.5066490238037
  1
【平面図】
 41
0.8299999999999998
100
AcDbText
  0
LINE
  5
3798F
330
18
100
AcDbEntity
  8
AM_5
100
AcDbLine
 10
-6261.347606762569
 20
-3410.894889331834
 30
0.0
 11
-5980.865088230875
 21
-3410.894889334697
 31
0.0
1001
ACAD
1000
DSTYLE
1002
{
1070
   342
1005
30A
1070
    40
1040
15.0
1002
}
1001
ACAD_DSTYLE_DIMINSPECT
1070
   393
1070
     0
  0
LINE
  5
37990
330
18
100
AcDbEntity
  8
AM_5
100
AcDbLine
 10
-6261.347606762569
 20
-3510.894889331834
 30
0.0
 11
-5980.865088231895
 21
-3510.894889334697
 31
0.0
1001
ACAD
1000
DSTYLE
1002
{
1070
   342
1005
30A
1070
    40
1040
15.0
1002
}
1001
ACAD_DSTYLE_DIMINSPECT
1070
   393
1070
     0
  0
LINE
  5
37991
330
18
100
AcDbEntity
  8
AM_5
100
AcDbLine
 10
-5995.865088231119
 20
-3434.894889334544
 30
0.0
 11
-5995.865088231651
 21
-3486.894889334544
 31
0.0
1001
ACAD
1000
DSTYLE
1002
{
1070
   342
1005
30A
1070
    40
1040
15.0
1002
}
1001
ACAD_DSTYLE_DIMINSPECT
1070
   393
1070
     0
  0
INSERT
  5
37992
330
18
100
AcDbEntity
  8
AM_5
100
AcDbBlockReference
  2
_Open
 10
-5995.865088230875
 20
-3410.894889334544
 30
0.0
 41
24.0
 42
24.0
 43
24.0
 50
89.99999999941532
1001
ACAD
1000
DSTYLE
1002
{
1070
   342
1005
30A
1070
    40
1040
15.0
1002
}
1001
ACAD_DSTYLE_DIMINSPECT
1070
   393
1070
     0
  0
INSERT
  5
37993
330
18
100
AcDbEntity
  8
AM_5
100
AcDbBlockReference
  2
_Open
 10
-5995.865088231895
 20
-3510.894889334544
 30
0.0
 41
24.0
 42
24.0
 43
24.0
 50
269.9999999994154
1001
ACAD
1000
DSTYLE
1002
{
1070
   342
1005
30A
1070
    40
1040
15.0
1002
}
1001
ACAD_DSTYLE_DIMINSPECT
1070
   393
1070
     0
  0
MTEXT
  5
37994
330
18
100
AcDbEntity
  8
AM_5
 62
     2
100
AcDbMText
 10
-6023.990088231385
 20
-3460.894889334257
 30
0.0
 40
37.5
 41
0.0
 46
0.0
 71
     5
 72
     1
  1
100
 11
1.020453055389226E-11
 21
1.0
 31
0.0
 73
     1
 44
1.0
1001
ACAD
1000
DSTYLE
1002
{
1070
   342
1005
30A
1070
    40
1040
15.0
1002
}
1001
ACAD_DSTYLE_DIMINSPECT
1070
   393
1070
     0
  0
LINE
  5
37995
330
18
100
AcDbEntity
  8
AM_5
100
AcDbLine
 10
-6261.347606762569
 20
-3110.894889331579
 30
0.0
 11
-5980.865088227813
 21
-3110.894889334442
 31
0.0
1001
ACAD
1000
DSTYLE
1002
{
1070
   342
1005
30A
1070
    40
1040
15.0
1002
}
1001
ACAD_DSTYLE_DIMINSPECT
1070
   393
1070
     0
  0
LINE
  5
37996
330
18
100
AcDbEntity
  8
AM_5
100
AcDbLine
 10
-6261.347606762569
 20
-3410.894889331834
 30
0.0
 11
-5980.865088230875
 21
-3410.894889334697
 31
0.0
1001
ACAD
1000
DSTYLE
1002
{
1070
   342
1005
30A
1070
    40
1040
15.0
1002
}
1001
ACAD_DSTYLE_DIMINSPECT
1070
   393
1070
     0
  0
LINE
  5
37997
330
18
100
AcDbEntity
  8
AM_5
100
AcDbLine
 10
-5995.865088228057
 20
-3134.894889334289
 30
0.0
 11
-5995.86508823063
 21
-3386.894889334544
 31
0.0
1001
ACAD
1000
DSTYLE
1002
{
1070
   342
1005
30A
1070
    40
1040
15.0
1002
}
1001
ACAD_DSTYLE_DIMINSPECT
1070
   393
1070
     0
  0
INSERT
  5
37998
330
18
100
AcDbEntity
  8
AM_5
100
AcDbBlockReference
  2
_Open
 10
-5995.865088227813
 20
-3110.894889334289
 30
0.0
 41
24.0
 42
24.0
 43
24.0
 50
89.99999999941517
1001
ACAD
1000
DSTYLE
1002
{
1070
   342
1005
30A
1070
    40
1040
15.0
1002
}
1001
ACAD_DSTYLE_DIMINSPECT
1070
   393
1070
     0
  0
INSERT
  5
37999
330
18
100
AcDbEntity
  8
AM_5
100
AcDbBlockReference
  2
_Open
 10
-5995.865088230875
 20
-3410.894889334544
 30
0.0
 41
24.0
 42
24.0
 43
24.0
 50
269.9999999994151
1001
ACAD
1000
DSTYLE
1002
{
1070
   342
1005
30A
1070
    40
1040
15.0
1002
}
1001
ACAD_DSTYLE_DIMINSPECT
1070
   393
1070
     0
  0
MTEXT
  5
3799A
330
18
100
AcDbEntity
  8
AM_5
 62
     2
100
AcDbMText
 10
-6023.990088229344
 20
-3260.894889334129
 30
0.0
 40
37.5
 41
0.0
 46
0.0
 71
     5
 72
     1
  1
300
 11
1.020756220288949E-11
 21
1.0
 31
0.0
 73
     1
 44
1.0
1001
ACAD
1000
DSTYLE
1002
{
1070
   342
1005
30A
1070
    40
1040
15.0
1002
}
1001
ACAD_DSTYLE_DIMINSPECT
1070
   393
1070
     0
  0
LINE
  5
3799B
330
18
100
AcDbEntity
  8
AM_5
100
AcDbLine
 10
-6476.347606762569
 20
-3525.894889331681
 30
0.0
 11
-6476.347606762569
 21
-3705.894889331681
 31
0.0
1001
ACAD
1000
DSTYLE
1002
{
1070
   342
1005
30A
1070
    40
1040
15.0
1002
}
1001
ACAD_DSTYLE_DIMINSPECT
1070
   393
1070
     0
  0
LINE
  5
3799C
330
18
100
AcDbEntity
  8
AM_5
100
AcDbLine
 10
-6276.347606762569
 20
-3525.894889331681
 30
0.0
 11
-6276.347606762569
 21
-3705.894889331681
 31
0.0
1001
ACAD
1000
DSTYLE
1002
{
1070
   342
1005
30A
1070
    40
1040
15.0
1002
}
1001
ACAD_DSTYLE_DIMINSPECT
1070
   393
1070
     0
  0
LINE
  5
3799D
330
18
100
AcDbEntity
  8
AM_5
100
AcDbLine
 10
-6452.347606762569
 20
-3690.894889331681
 30
0.0
 11
-6300.347606762569
 21
-3690.894889331681
 31
0.0
1001
ACAD
1000
DSTYLE
1002
{
1070
   342
1005
30A
1070
    40
1040
15.0
1002
}
1001
ACAD_DSTYLE_DIMINSPECT
1070
   393
1070
     0
  0
INSERT
  5
3799E
330
18
100
AcDbEntity
  8
AM_5
100
AcDbBlockReference
  2
_Open
 10
-6476.347606762569
 20
-3690.894889331681
 30
0.0
 41
24.0
 42
24.0
 43
24.0
 50
180.0
1001
ACAD
1000
DSTYLE
1002
{
1070
   342
1005
30A
1070
    40
1040
15.0
1002
}
1001
ACAD_DSTYLE_DIMINSPECT
1070
   393
1070
     0
  0
INSERT
  5
3799F
330
18
100
AcDbEntity
  8
AM_5
100
AcDbBlockReference
  2
_Open
 10
-6276.347606762569
 20
-3690.894889331681
 30
0.0
 41
24.0
 42
24.0
 43
24.0
1001
ACAD
1000
DSTYLE
1002
{
1070
   342
1005
30A
1070
    40
1040
15.0
1002
}
1001
ACAD_DSTYLE_DIMINSPECT
1070
   393
1070
     0
  0
MTEXT
  5
379A0
330
18
100
AcDbEntity
  8
AM_5
 62
     2
100
AcDbMText
 10
-6376.347606762569
 20
-3662.769889331681
 30
0.0
 40
37.5
 41
0.0
 46
0.0
 71
     5
 72
     1
  1
□200
 73
     1
 44
1.0
1001
ACAD
1000
DSTYLE
1002
{
1070
   342
1005
30A
1070
    40
1040
15.0
1002
}
1001
ACAD_DSTYLE_DIMINSPECT
1070
   393
1070
     0
  0
LINE
  5
379A1
330
18
100
AcDbEntity
  8
AM_2
100
AcDbLine
 10
-6476.347606762569
 20
-3410.894889331681
 30
0.0
 11
-6476.347606762569
 21
-3510.894889331681
 31
0.0
  0
LINE
  5
379A2
330
18
100
AcDbEntity
  8
AM_2
100
AcDbLine
 10
-6476.347606762569
 20
-3510.894889331681
 30
0.0
 11
-6276.347606762569
 21
-3510.894889331681
 31
0.0
  0
LINE
  5
379A3
330
18
100
AcDbEntity
  8
AM_2
100
AcDbLine
 10
-6276.347606762569
 20
-3510.894889331681
 30
0.0
 11
-6276.347606762569
 21
-3410.894889331681
 31
0.0
  0
LINE
  5
379A4
330
18
100
AcDbEntity
  8
AM_2
100
AcDbLine
 10
-6276.347606762569
 20
-3410.894889331681
 30
0.0
 11
-6476.347606762569
 21
-3410.894889331681
 31
0.0
  0
LINE
  5
379A5
330
18
100
AcDbEntity
  8
AM_2
100
AcDbLine
 10
-6476.347606762569
 20
-3110.894889331681
 30
0.0
 11
-6476.347606762569
 21
-3410.894889331681
 31
0.0
  0
LINE
  5
379A6
330
18
100
AcDbEntity
  8
AM_2
100
AcDbLine
 10
-6476.347606762569
 20
-3410.894889331681
 30
0.0
 11
-6276.347606762569
 21
-3410.894889331681
 31
0.0
  0
LINE
  5
379A7
330
18
100
AcDbEntity
  8
AM_2
100
AcDbLine
 10
-6276.347606762569
 20
-3410.894889331681
 30
0.0
 11
-6276.347606762569
 21
-3110.894889331681
 31
0.0
  0
LINE
  5
379A8
330
18
100
AcDbEntity
  8
AM_2
100
AcDbLine
 10
-6276.347606762569
 20
-3110.894889331681
 30
0.0
 11
-6476.347606762569
 21
-3110.894889331681
 31
0.0
  0
LINE
  5
379A9
330
18
100
AcDbEntity
  8
AM_5
100
AcDbLine
 10
-6309.373593762569
 20
-2111.394639331605
 30
0.0
 11
-5980.865088232913
 21
-2111.394639329928
 31
0.0
1001
ACAD
1000
DSTYLE
1002
{
1070
   342
1005
30A
1070
   271
1070
     0
1070
    40
1040
15.0
1002
}
1001
ACAD_DSTYLE_DIMINSPECT
1070
   393
1070
     0
  0
LINE
  5
379AA
330
18
100
AcDbEntity
  8
AM_5
100
AcDbLine
 10
-6311.372594262566
 20
-3110.894889331604
 30
0.0
 11
-5980.865088227813
 21
-3110.894889329918
 31
0.0
1001
ACAD
1000
DSTYLE
1002
{
1070
   342
1005
30A
1070
   271
1070
     0
1070
    40
1040
15.0
1002
}
1001
ACAD_DSTYLE_DIMINSPECT
1070
   393
1070
     0
  0
LINE
  5
379AB
330
18
100
AcDbEntity
  8
AM_5
100
AcDbLine
 10
-5995.86508823279
 20
-2135.394639330005
 30
0.0
 11
-5995.865088227935
 21
-3086.894889329994
 31
0.0
1001
ACAD
1000
DSTYLE
1002
{
1070
   342
1005
30A
1070
   271
1070
     0
1070
    40
1040
15.0
1002
}
1001
ACAD_DSTYLE_DIMINSPECT
1070
   393
1070
     0
  0
INSERT
  5
379AC
330
18
100
AcDbEntity
  8
AM_5
100
AcDbBlockReference
  2
_Open
 10
-5995.865088232913
 20
-2111.394639330005
 30
0.0
 41
24.0
 42
24.0
 43
24.0
 50
90.00000000029239
1001
ACAD
1000
DSTYLE
1002
{
1070
   342
1005
30A
1070
   271
1070
     0
1070
    40
1040
15.0
1002
}
1001
ACAD_DSTYLE_DIMINSPECT
1070
   393
1070
     0
  0
INSERT
  5
379AD
330
18
100
AcDbEntity
  8
AM_5
100
AcDbBlockReference
  2
_Open
 10
-5995.865088227813
 20
-3110.894889329994
 30
0.0
 41
24.0
 42
24.0
 43
24.0
 50
270.0000000002923
1001
ACAD
1000
DSTYLE
1002
{
1070
   342
1005
30A
1070
   271
1070
     0
1070
    40
1040
15.0
1002
}
1001
ACAD_DSTYLE_DIMINSPECT
1070
   393
1070
     0
  0
MTEXT
  5
379AE
330
18
100
AcDbEntity
  8
AM_5
 62
     2
100
AcDbMText
 10
-6023.990088230363
 20
-2611.144764330143
 30
0.0
 40
37.5
 41
0.0
 46
0.0
 71
     5
 72
     1
  1
1000
 11
-5.102996510048534E-12
 21
1.0
 31
0.0
 73
     1
 44
1.0
1001
ACAD
1000
DSTYLE
1002
{
1070
   342
1005
30A
1070
   271
1070
     0
1070
    40
1040
15.0
1002
}
1001
ACAD_DSTYLE_DIMINSPECT
1070
   393
1070
     0
  0
LINE
  5
379AF
330
18
100
AcDbEntity
  8
AM_5
100
AcDbLine
 10
-6443.321619762569
 20
-2126.387143081758
 30
0.0
 11
-6583.842093118189
 21
-2126.387143082475
 31
0.0
1001
ACAD
1000
DSTYLE
1002
{
1070
   342
1005
30A
1070
   271
1070
     0
1070
    40
1040
15.0
1002
}
1001
ACAD_DSTYLE_DIMINSPECT
1070
   393
1070
     0
  0
LINE
  5
379B0
330
18
100
AcDbEntity
  8
AM_5
100
AcDbLine
 10
-6441.322619262571
 20
-3110.894889331757
 30
0.0
 11
-6583.842093113165
 21
-3110.894889332485
 31
0.0
1001
ACAD
1000
DSTYLE
1002
{
1070
   342
1005
30A
1070
   271
1070
     0
1070
    40
1040
15.0
1002
}
1001
ACAD_DSTYLE_DIMINSPECT
1070
   393
1070
     0
  0
LINE
  5
379B1
330
18
100
AcDbEntity
  8
AM_5
100
AcDbLine
 10
-6568.842093118066
 20
-2150.387143082399
 30
0.0
 11
-6568.842093113288
 21
-3086.894889332408
 31
0.0
1001
ACAD
1000
DSTYLE
1002
{
1070
   342
1005
30A
1070
   271
1070
     0
1070
    40
1040
15.0
1002
}
1001
ACAD_DSTYLE_DIMINSPECT
1070
   393
1070
     0
  0
INSERT
  5
379B2
330
18
100
AcDbEntity
  8
AM_5
100
AcDbBlockReference
  2
_Open
 10
-6568.842093118189
 20
-2126.387143082399
 30
0.0
 41
24.0
 42
24.0
 43
24.0
 50
90.00000000029239
1001
ACAD
1000
DSTYLE
1002
{
1070
   342
1005
30A
1070
   271
1070
     0
1070
    40
1040
15.0
1002
}
1001
ACAD_DSTYLE_DIMINSPECT
1070
   393
1070
     0
  0
INSERT
  5
379B3
330
18
100
AcDbEntity
  8
AM_5
100
AcDbBlockReference
  2
_Open
 10
-6568.842093113165
 20
-3110.894889332408
 30
0.0
 41
24.0
 42
24.0
 43
24.0
 50
270.0000000002924
1001
ACAD
1000
DSTYLE
1002
{
1070
   342
1005
30A
1070
   271
1070
     0
1070
    40
1040
15.0
1002
}
1001
ACAD_DSTYLE_DIMINSPECT
1070
   393
1070
     0
  0
MTEXT
  5
379B4
330
18
100
AcDbEntity
  8
AM_5
 62
     2
100
AcDbMText
 10
-6596.967093115677
 20
-2618.641016207547
 30
0.0
 40
37.5
 41
0.0
 46
0.0
 71
     5
 72
     1
  1
985
 11
-5.103107366834096E-12
 21
1.0
 31
0.0
 73
     1
 44
1.0
1001
ACAD
1000
DSTYLE
1002
{
1070
   342
1005
30A
1070
   271
1070
     0
1070
    40
1040
15.0
1002
}
1001
ACAD_DSTYLE_DIMINSPECT
1070
   393
1070
     0
  0
LINE
  5
379B5
330
18
100
AcDbEntity
  8
AM_5
100
AcDbLine
 10
-6416.33511301257
 20
-2081.409631831758
 30
0.0
 11
-6583.842093118189
 21
-2081.409631832613
 31
0.0
1001
ACAD
1000
DSTYLE
1002
{
1070
   342
1005
30A
1070
   271
1070
     1
1070
    40
1040
15.0
1002
}
1001
ACAD_DSTYLE_DIMINSPECT
1070
   393
1070
     0
  0
LINE
  5
379B6
330
18
100
AcDbEntity
  8
AM_5
100
AcDbLine
 10
-6443.321619762569
 20
-2126.387143081758
 30
0.0
 11
-6583.84209311796
 21
-2126.387143082475
 31
0.0
1001
ACAD
1000
DSTYLE
1002
{
1070
   342
1005
30A
1070
   271
1070
     1
1070
    40
1040
15.0
1002
}
1001
ACAD_DSTYLE_DIMINSPECT
1070
   393
1070
     0
  0
LINE
  5
379B7
330
18
100
AcDbEntity
  8
AM_5
100
AcDbLine
 10
-6568.842093118189
 20
-2081.409631832536
 30
0.0
 11
-6568.84209311796
 21
-2126.387143082399
 31
0.0
1001
ACAD
1000
DSTYLE
1002
{
1070
   342
1005
30A
1070
   271
1070
     1
1070
    40
1040
15.0
1002
}
1001
ACAD_DSTYLE_DIMINSPECT
1070
   393
1070
     0
  0
LINE
  5
379B8
330
18
100
AcDbEntity
  8
AM_5
100
AcDbLine
 10
-6568.842093118311
 20
-2057.409631832536
 30
0.0
 11
-6568.842093118433
 21
-2033.409631832536
 31
0.0
1001
ACAD
1000
DSTYLE
1002
{
1070
   342
1005
30A
1070
   271
1070
     1
1070
    40
1040
15.0
1002
}
1001
ACAD_DSTYLE_DIMINSPECT
1070
   393
1070
     0
  0
LINE
  5
379B9
330
18
100
AcDbEntity
  8
AM_5
100
AcDbLine
 10
-6568.842093117838
 20
-2150.387143082399
 30
0.0
 11
-6568.842093117716
 21
-2174.387143082399
 31
0.0
1001
ACAD
1000
DSTYLE
1002
{
1070
   342
1005
30A
1070
   271
1070
     1
1070
    40
1040
15.0
1002
}
1001
ACAD_DSTYLE_DIMINSPECT
1070
   393
1070
     0
  0
INSERT
  5
379BA
330
18
100
AcDbEntity
  8
AM_5
100
AcDbBlockReference
  2
_Open
 10
-6568.842093118189
 20
-2081.409631832536
 30
0.0
 41
24.0
 42
24.0
 43
24.0
 50
270.0000000002919
1001
ACAD
1000
DSTYLE
1002
{
1070
   342
1005
30A
1070
   271
1070
     1
1070
    40
1040
15.0
1002
}
1001
ACAD_DSTYLE_DIMINSPECT
1070
   393
1070
     0
  0
INSERT
  5
379BB
330
18
100
AcDbEntity
  8
AM_5
100
AcDbBlockReference
  2
_Open
 10
-6568.84209311796
 20
-2126.387143082399
 30
0.0
 41
24.0
 42
24.0
 43
24.0
 50
90.00000000029196
1001
ACAD
1000
DSTYLE
1002
{
1070
   342
1005
30A
1070
   271
1070
     1
1070
    40
1040
15.0
1002
}
1001
ACAD_DSTYLE_DIMINSPECT
1070
   393
1070
     0
  0
MTEXT
  5
379BC
330
18
100
AcDbEntity
  8
AM_5
 62
     2
100
AcDbMText
 10
-6596.967093118074
 20
-2103.898387457611
 30
0.0
 40
37.5
 41
0.0
 46
0.0
 71
     5
 72
     1
  1
45
 11
-5.095716914471993E-12
 21
1.0
 31
0.0
 73
     1
 44
1.0
1001
ACAD
1000
DSTYLE
1002
{
1070
   342
1005
30A
1070
   271
1070
     1
1070
    40
1040
15.0
1002
}
1001
ACAD_DSTYLE_DIMINSPECT
1070
   393
1070
     0
  0
LINE
  5
379BD
330
18
100
AcDbEntity
  8
AM_5
100
AcDbLine
 10
-6426.322619262494
 20
-2111.387143081676
 30
0.0
 11
-6426.322619261671
 21
-1950.134206963006
 31
0.0
1001
ACAD
1000
DSTYLE
1002
{
1070
   342
1005
30A
1070
   271
1070
     1
1070
    40
1040
15.0
1002
}
1001
ACAD_DSTYLE_DIMINSPECT
1070
   393
1070
     0
  0
LINE
  5
379BE
330
18
100
AcDbEntity
  8
AM_5
100
AcDbLine
 10
-6326.37259426249
 20
-2111.387143081676
 30
0.0
 11
-6326.372594261667
 21
-1950.134206963516
 31
0.0
1001
ACAD
1000
DSTYLE
1002
{
1070
   342
1005
30A
1070
   271
1070
     1
1070
    40
1040
15.0
1002
}
1001
ACAD_DSTYLE_DIMINSPECT
1070
   393
1070
     0
  0
LINE
  5
379BF
330
18
100
AcDbEntity
  8
AM_5
100
AcDbLine
 10
-6402.322619261748
 20
-1965.134206963128
 30
0.0
 11
-6350.372594261743
 21
-1965.134206963393
 31
0.0
1001
ACAD
1000
DSTYLE
1002
{
1070
   342
1005
30A
1070
   271
1070
     1
1070
    40
1040
15.0
1002
}
1001
ACAD_DSTYLE_DIMINSPECT
1070
   393
1070
     0
  0
INSERT
  5
379C0
330
18
100
AcDbEntity
  8
AM_5
100
AcDbBlockReference
  2
_Open
 10
-6426.322619261748
 20
-1965.134206963006
 30
0.0
 41
24.0
 42
24.0
 43
24.0
 50
179.9999999997077
1001
ACAD
1000
DSTYLE
1002
{
1070
   342
1005
30A
1070
   271
1070
     1
1070
    40
1040
15.0
1002
}
1001
ACAD_DSTYLE_DIMINSPECT
1070
   393
1070
     0
  0
INSERT
  5
379C1
330
18
100
AcDbEntity
  8
AM_5
100
AcDbBlockReference
  2
_Open
 10
-6326.372594261743
 20
-1965.134206963516
 30
0.0
 41
24.0
 42
24.0
 43
24.0
 50
359.9999999997077
1001
ACAD
1000
DSTYLE
1002
{
1070
   342
1005
30A
1070
   271
1070
     1
1070
    40
1040
15.0
1002
}
1001
ACAD_DSTYLE_DIMINSPECT
1070
   393
1070
     0
  0
MTEXT
  5
379C2
330
18
100
AcDbEntity
  8
AM_5
 62
     2
100
AcDbMText
 10
-6376.347606761601
 20
-1937.009206963261
 30
0.0
 40
37.5
 41
0.0
 46
0.0
 71
     5
 72
     1
  1
100
 73
     1
 44
1.0
1001
ACAD
1000
DSTYLE
1002
{
1070
   342
1005
30A
1070
   271
1070
     1
1070
    40
1040
15.0
1002
}
1001
ACAD_DSTYLE_DIMINSPECT
1070
   393
1070
     0
  0
LINE
  5
379C3
330
18
100
AcDbEntity
  8
一般
  6
Continuous
 62
     7
370
    18
100
AcDbLine
 10
-6401.335113012573
 20
-1408.145493784812
 30
0.0
 11
-6351.36010051257
 21
-1408.145493784812
 31
0.0
  0
LINE
  5
379C4
330
18
100
AcDbEntity
  8
一般
  6
Continuous
 62
     7
370
    18
100
AcDbLine
 10
-6351.36010051257
 20
-1408.145493784812
 30
0.0
 11
-6351.36010051257
 21
-1458.120506284808
 31
0.0
  0
LINE
  5
379C5
330
18
100
AcDbEntity
  8
一般
  6
Continuous
 62
     7
370
    18
100
AcDbLine
 10
-6351.36010051257
 20
-1458.120506284808
 30
0.0
 11
-6401.335113012573
 21
-1458.120506284808
 31
0.0
  0
LINE
  5
379C6
330
18
100
AcDbEntity
  8
一般
  6
Continuous
 62
     7
370
    18
100
AcDbLine
 10
-6401.335113012573
 20
-1458.120506284808
 30
0.0
 11
-6401.335113012573
 21
-1408.145493784812
 31
0.0
  0
CIRCLE
  5
379C7
330
18
100
AcDbEntity
  8
一般
  6
Continuous
 62
     7
370
     9
100
AcDbCircle
 10
-6376.34760676257
 20
-2119.390641331682
 30
0.0
 40
3.392416341949009
  0
INSERT
  5
379C8
330
18
100
AcDbEntity
  8
一般
 62
     7
100
AcDbBlockReference
  2
グループ-10
 10
-5519.941212373928
 20
-2591.23198890605
 30
0.0
 41
0.9995002500000003
 42
0.9995002500000003
 43
0.9995002500000003
  0
WIPEOUT
  5
379C9
330
18
100
AcDbEntity
  8
一般
  6
Continuous
 62
   255
370
    18
160
               188
310
BC00000001000000B400000006000000070000007465F7C95501B9C0F27043BBD142A0C00000000000000000FB39AC55521CB9C0939E2A0ECA7EA0C00000000000000000FB39AC55521CB9C064359E37C69CA0C000000000000000003940D7A35FB4B8C064359E37C69CA0C000000000000000003940D7A35FB4B8C0939E2A
310
0ECA7EA0C00000000000000000C3148C2F5CCFB8C0F27043BBD142A0C000000000000000007465F7C95501B9C0F27043BBD142A0C00000000000000000
100
AcDbWipeout
 90
        0
 10
-6428.321619762569
 20
-2126.387143081682
 30
0.0
 11
103.948026
 21
0.0
 31
0.0
 12
0.0
 22
103.948026
 32
0.0
 13
1.0
 23
1.0
340
0
 70
     7
280
     1
281
    50
282
    50
283
     0
360
0
 71
     2
 91
        7
 14
-0.2403846153846256
 24
0.0673076923076898
 14
-0.5000000000000018
 24
0.3557692307692282
 14
-0.5000000000000018
 24
0.4999999999999991
 14
0.4999999999999991
 24
0.4999999999999991
 14
0.4999999999999991
 24
0.3557692307692282
 14
0.2403846153846052
 24
0.0673076923076898
 14
-0.2403846153846256
 24
0.0673076923076898
290
     0
  0
LWPOLYLINE
  5
379CA
330
18
100
AcDbEntity
  8
一般
  6
Continuous
 62
     7
370
    18
100
AcDbPolyline
 90
        6
 70
   128
 43
0.0
 10
-6401.33511301257
 20
-2081.409631831682
 10
-6428.321619762569
 20
-2111.394639331681
 10
-6428.321619762569
 20
-2126.387143081682
 10
-6324.373593762569
 20
-2126.387143081682
 10
-6324.373593762569
 20
-2111.394639331681
 10
-6351.36010051257
 20
-2081.409631831682
  0
LINE
  5
379CB
330
18
100
AcDbEntity
  8
一般
  6
Continuous
 62
     7
370
    18
100
AcDbLine
 10
-6428.321619762569
 20
-2111.394639331681
 30
0.0
 11
-6324.373593762569
 21
-2111.394639331681
 31
0.0
  0
LINE
  5
379CC
330
18
100
AcDbEntity
  8
一般
  6
Continuous
 62
     7
370
    18
100
AcDbLine
 10
-6401.33511301257
 20
-2081.409631831682
 30
0.0
 11
-6351.36010051257
 21
-2081.409631831682
 31
0.0
  0
TEXT
  5
379CD
330
18
100
AcDbEntity
  8
一般
  6
Continuous
 62
     7
100
AcDbText
 10
-6781.087863080775
 20
-3099.725942912664
 30
0.0
 40
36.5066490238037
  1
GL
 41
0.8299999999999998
100
AcDbText
  0
LINE
  5
379CE
330
18
100
AcDbEntity
  8
一般
  6
Continuous
 62
     7
370
    18
100
AcDbLine
 10
-6428.321619762569
 20
-1381.158987034809
 30
0.0
 11
-6324.373593762568
 21
-1381.158987034809
 31
0.0
  0
LINE
  5
379CF
330
18
100
AcDbEntity
  8
一般
  6
Continuous
 62
     7
370
    18
100
AcDbLine
 10
-6324.373593762568
 20
-1381.158987034809
 30
0.0
 11
-6324.373593762568
 21
-1485.10701303481
 31
0.0
  0
LINE
  5
379D0
330
18
100
AcDbEntity
  8
一般
  6
Continuous
 62
     7
370
    18
100
AcDbLine
 10
-6324.373593762568
 20
-1485.10701303481
 30
0.0
 11
-6428.321619762569
 21
-1485.10701303481
 31
0.0
  0
LINE
  5
379D1
330
18
100
AcDbEntity
  8
一般
  6
Continuous
 62
     7
370
    18
100
AcDbLine
 10
-6428.321619762569
 20
-1485.10701303481
 30
0.0
 11
-6428.321619762569
 21
-1381.158987034809
 31
0.0
  0
LINE
  5
379D2
330
18
100
AcDbEntity
  8
一般
  6
Continuous
 62
     7
370
    18
100
AcDbLine
 10
-6426.322619262571
 20
-2111.394639331676
 30
0.0
 11
-6326.372594262566
 21
-2111.394639331676
 31
0.0
  0
LINE
  5
379D3
330
18
100
AcDbEntity
  8
一般
  6
Continuous
 62
     7
370
    18
100
AcDbLine
 10
-6326.372594262566
 20
-2111.394639331676
 30
0.0
 11
-6326.372594262566
 21
-3410.894889331681
 31
0.0
  0
LINE
  5
379D4
330
18
100
AcDbEntity
  8
一般
  6
Continuous
 62
     7
370
    18
100
AcDbLine
 10
-6326.372594262566
 20
-3410.894889331681
 30
0.0
 11
-6426.322619262571
 21
-3410.894889331681
 31
0.0
  0
LINE
  5
379D5
330
18
100
AcDbEntity
  8
一般
  6
Continuous
 62
     7
370
    18
100
AcDbLine
 10
-6426.322619262571
 20
-3410.894889331681
 30
0.0
 11
-6426.322619262571
 21
-2111.394639331676
 31
0.0
  0
LINE
  5
379D6
330
18
100
AcDbEntity
  8
AM_5
100
AcDbLine
 10
-4142.128195195091
 20
-2786.395552321832
 30
0.0
 11
-4332.033242695099
 21
-2786.395552322801
 31
0.0
1001
ACAD
1000
DSTYLE
1002
{
1070
   343
1005
30A
1070
   344
1005
37608
1070
   144
1040
0.2
1070
   173
1070
     1
1070
    40
1040
15.0
1070
    76
1070
     1
1002
}
1001
ACAD_DSTYLE_DIMINSPECT
1070
   393
1070
     0
  0
LINE
  5
379D7
330
18
100
AcDbEntity
  8
AM_5
100
AcDbLine
 10
-4317.033242694976
 20
-2810.395552322725
 30
0.0
 11
-4317.033242692649
 21
-3266.459965838329
 31
0.0
1001
ACAD
1000
DSTYLE
1002
{
1070
   343
1005
30A
1070
   344
1005
37608
1070
   144
1040
0.2
1070
   173
1070
     1
1070
    40
1040
15.0
1070
    76
1070
     1
1002
}
1001
ACAD_DSTYLE_DIMINSPECT
1070
   393
1070
     0
  0
INSERT
  5
379D8
330
18
100
AcDbEntity
  8
AM_5
100
AcDbBlockReference
  2
_Open
 10
-4317.033242695099
 20
-2786.395552322725
 30
0.0
 41
24.0
 42
24.0
 43
24.0
 50
90.00000000029243
1001
ACAD
1000
DSTYLE
1002
{
1070
   343
1005
30A
1070
   344
1005
37608
1070
   144
1040
0.2
1070
   173
1070
     1
1070
    40
1040
15.0
1070
    76
1070
     1
1002
}
1001
ACAD_DSTYLE_DIMINSPECT
1070
   393
1070
     0
  0
INSERT
  5
379D9
330
18
100
AcDbEntity
  8
AM_5
100
AcDbBlockReference
  2
_None
 10
-4317.033242692649
 20
-3266.459965838329
 30
0.0
 41
24.0
 42
24.0
 43
24.0
 50
270.0000000002924
1001
ACAD
1000
DSTYLE
1002
{
1070
   343
1005
30A
1070
   344
1005
37608
1070
   144
1040
0.2
1070
   173
1070
     1
1070
    40
1040
15.0
1070
    76
1070
     1
1002
}
1001
ACAD_DSTYLE_DIMINSPECT
1070
   393
1070
     0
  0
MTEXT
  5
379DA
330
18
100
AcDbEntity
  8
AM_5
 62
     2
100
AcDbMText
 10
-4345.158242693813
 20
-3038.427759080671
 30
0.0
 40
37.5
 41
0.0
 46
0.0
 71
     5
 72
     1
  1
1000
 11
-5.103854102896602E-12
 21
1.0
 31
0.0
 73
     1
 44
1.0
1001
ACAD
1000
DSTYLE
1002
{
1070
   343
1005
30A
1070
   344
1005
37608
1070
   144
1040
0.2
1070
   173
1070
     1
1070
    40
1040
15.0
1070
    76
1070
     1
1002
}
1001
ACAD_DSTYLE_DIMINSPECT
1070
   393
1070
     0
  0
LINE
  5
379DB
330
18
100
AcDbEntity
  8
AM_5
100
AcDbLine
 10
-3592.388065195096
 20
-2861.35807107168
 30
0.0
 11
-3452.458030193946
 21
-2861.358071070966
 31
0.0
1001
ACAD
1000
DSTYLE
1002
{
1070
   342
1005
30A
1070
   271
1070
     1
1070
   144
1040
0.2
1070
    40
1040
15.0
1002
}
1001
ACAD_DSTYLE_DIMINSPECT
1070
   393
1070
     0
  0
LINE
  5
379DC
330
18
100
AcDbEntity
  8
AM_5
100
AcDbLine
 10
-3727.320598945094
 20
-2636.47051482168
 30
0.0
 11
-3452.458030195094
 21
-2636.470514820277
 31
0.0
1001
ACAD
1000
DSTYLE
1002
{
1070
   342
1005
30A
1070
   271
1070
     1
1070
   144
1040
0.2
1070
    40
1040
15.0
1002
}
1001
ACAD_DSTYLE_DIMINSPECT
1070
   393
1070
     0
  0
LINE
  5
379DD
330
18
100
AcDbEntity
  8
AM_5
100
AcDbLine
 10
-3467.458030194069
 20
-2837.358071071043
 30
0.0
 11
-3467.458030194972
 21
-2660.470514820353
 31
0.0
1001
ACAD
1000
DSTYLE
1002
{
1070
   342
1005
30A
1070
   271
1070
     1
1070
   144
1040
0.2
1070
    40
1040
15.0
1002
}
1001
ACAD_DSTYLE_DIMINSPECT
1070
   393
1070
     0
  0
INSERT
  5
379DE
330
18
100
AcDbEntity
  8
AM_5
100
AcDbBlockReference
  2
_Open
 10
-3467.458030193946
 20
-2861.358071071043
 30
0.0
 41
24.0
 42
24.0
 43
24.0
 50
270.0000000002924
1001
ACAD
1000
DSTYLE
1002
{
1070
   342
1005
30A
1070
   271
1070
     1
1070
   144
1040
0.2
1070
    40
1040
15.0
1002
}
1001
ACAD_DSTYLE_DIMINSPECT
1070
   393
1070
     0
  0
INSERT
  5
379DF
330
18
100
AcDbEntity
  8
AM_5
100
AcDbBlockReference
  2
_Open
 10
-3467.458030195094
 20
-2636.470514820353
 30
0.0
 41
24.0
 42
24.0
 43
24.0
 50
90.00000000029243
1001
ACAD
1000
DSTYLE
1002
{
1070
   342
1005
30A
1070
   271
1070
     1
1070
   144
1040
0.2
1070
    40
1040
15.0
1002
}
1001
ACAD_DSTYLE_DIMINSPECT
1070
   393
1070
     0
  0
MTEXT
  5
379E0
330
18
100
AcDbEntity
  8
AM_5
 62
     2
100
AcDbMText
 10
-3495.58303019452
 20
-2748.914292945842
 30
0.0
 40
37.5
 41
0.0
 46
0.0
 71
     5
 72
     1
  1
45
 11
-5.103805353987514E-12
 21
1.0
 31
0.0
 73
     1
 44
1.0
1001
ACAD
1000
DSTYLE
1002
{
1070
   342
1005
30A
1070
   271
1070
     1
1070
   144
1040
0.2
1070
    40
1040
15.0
1002
}
1001
ACAD_DSTYLE_DIMINSPECT
1070
   393
1070
     0
  0
LINE
  5
379E1
330
18
100
AcDbEntity
  8
AM_5
100
AcDbLine
 10
-4117.133192695097
 20
-2876.358071071757
 30
0.0
 11
-4117.133192695097
 21
-3091.554918337312
 31
0.0
1001
ACAD
1000
DSTYLE
1002
{
1070
   342
1005
30A
1070
   271
1070
     1
1070
   144
1040
0.2
1070
    40
1040
15.0
1002
}
1001
ACAD_DSTYLE_DIMINSPECT
1070
   393
1070
     0
  0
LINE
  5
379E2
330
18
100
AcDbEntity
  8
AM_5
100
AcDbLine
 10
-3617.383067695094
 20
-2876.358071071757
 30
0.0
 11
-3617.383067695094
 21
-3091.554918337312
 31
0.0
1001
ACAD
1000
DSTYLE
1002
{
1070
   342
1005
30A
1070
   271
1070
     1
1070
   144
1040
0.2
1070
    40
1040
15.0
1002
}
1001
ACAD_DSTYLE_DIMINSPECT
1070
   393
1070
     0
  0
LINE
  5
379E3
330
18
100
AcDbEntity
  8
AM_5
100
AcDbLine
 10
-4093.133192695097
 20
-3076.554918337312
 30
0.0
 11
-3641.383067695094
 21
-3076.554918337312
 31
0.0
1001
ACAD
1000
DSTYLE
1002
{
1070
   342
1005
30A
1070
   271
1070
     1
1070
   144
1040
0.2
1070
    40
1040
15.0
1002
}
1001
ACAD_DSTYLE_DIMINSPECT
1070
   393
1070
     0
  0
INSERT
  5
379E4
330
18
100
AcDbEntity
  8
AM_5
100
AcDbBlockReference
  2
_Open
 10
-4117.133192695097
 20
-3076.554918337312
 30
0.0
 41
24.0
 42
24.0
 43
24.0
 50
180.0
1001
ACAD
1000
DSTYLE
1002
{
1070
   342
1005
30A
1070
   271
1070
     1
1070
   144
1040
0.2
1070
    40
1040
15.0
1002
}
1001
ACAD_DSTYLE_DIMINSPECT
1070
   393
1070
     0
  0
INSERT
  5
379E5
330
18
100
AcDbEntity
  8
AM_5
100
AcDbBlockReference
  2
_Open
 10
-3617.383067695094
 20
-3076.554918337312
 30
0.0
 41
24.0
 42
24.0
 43
24.0
1001
ACAD
1000
DSTYLE
1002
{
1070
   342
1005
30A
1070
   271
1070
     1
1070
   144
1040
0.2
1070
    40
1040
15.0
1002
}
1001
ACAD_DSTYLE_DIMINSPECT
1070
   393
1070
     0
  0
MTEXT
  5
379E6
330
18
100
AcDbEntity
  8
AM_5
 62
     2
100
AcDbMText
 10
-3867.258130195096
 20
-3048.429918337312
 30
0.0
 40
37.5
 41
0.0
 46
0.0
 71
     5
 72
     1
  1
100
 73
     1
 44
1.0
1001
ACAD
1000
DSTYLE
1002
{
1070
   342
1005
30A
1070
   271
1070
     1
1070
   144
1040
0.2
1070
    40
1040
15.0
1002
}
1001
ACAD_DSTYLE_DIMINSPECT
1070
   393
1070
     0
  0
LINE
  5
379E7
330
18
100
AcDbEntity
  8
AM_VIEWS
100
AcDbLine
 10
-5029.949103336254
 20
-999.9359218007471
 30
0.0
 11
-3044.764306273016
 21
-999.9359218007471
 31
0.0
1001
GENIUS_GENOBJ-N-SDF_13
1002
{
1000
OWNER
1000
GEN
1002
}
1001
GENIUS_GENODEF_13
1002
{
1000
HIER
1070
     0
1002
}
1002
{
1000
MANEDIT
1070
     0
1002
}
1002
{
1000
NOSEL
1070
     0
1002
}
1002
{
1000
BEHIND
1070
     0
1002
}
1002
{
1000
OTHER
1070
     0
1002
}
1002
{
1000
REACTOR
1002
}
1001
GENIUS_GENSCREG_15
1040
15.0
1040
0.2
1011
-5029.949103336254
1021
-999.9359218007471
1031
0.0
1011
-3044.764306273016
1021
-999.9359218007471
1031
0.0
1070
     4
  0
LINE
  5
379E8
330
18
100
AcDbEntity
  8
AM_VIEWS
100
AcDbLine
 10
-3044.764306273016
 20
-999.9359218007471
 30
0.0
 11
-3044.764306273016
 21
-3661.441369711033
 31
0.0
1001
GENIUS_GENOBJ-N-SDF_13
1002
{
1000
OWNER
1000
GEN
1002
}
1001
GENIUS_GENODEF_13
1002
{
1000
HIER
1070
     0
1002
}
1002
{
1000
MANEDIT
1070
     0
1002
}
1002
{
1000
NOSEL
1070
     0
1002
}
1002
{
1000
BEHIND
1070
     0
1002
}
1002
{
1000
OTHER
1070
     0
1002
}
1002
{
1000
REACTOR
1002
}
1001
GENIUS_GENSCREG_15
1040
15.0
1040
0.2
1011
-3044.764306273016
1021
-3661.441369711033
1031
0.0
1011
-3044.764306273016
1021
-999.9359218007471
1031
0.0
1070
     4
  0
LINE
  5
379E9
330
18
100
AcDbEntity
  8
AM_VIEWS
100
AcDbLine
 10
-3044.764306273016
 20
-3661.441369711033
 30
0.0
 11
-5029.949103336254
 21
-3661.441369711033
 31
0.0
1001
GENIUS_GENOBJ-N-SDF_13
1002
{
1000
OWNER
1000
GEN
1002
}
1001
GENIUS_GENODEF_13
1002
{
1000
HIER
1070
     0
1002
}
1002
{
1000
MANEDIT
1070
     0
1002
}
1002
{
1000
NOSEL
1070
     0
1002
}
1002
{
1000
BEHIND
1070
     0
1002
}
1002
{
1000
OTHER
1070
     0
1002
}
1002
{
1000
REACTOR
1002
}
1001
GENIUS_GENSCREG_15
1040
15.0
1040
0.2
1011
-5029.949103336254
1021
-3661.441369711033
1031
0.0
1011
-3044.764306273016
1021
-3661.441369711033
1031
0.0
1070
     4
  0
LINE
  5
379EA
330
18
100
AcDbEntity
  8
AM_VIEWS
100
AcDbLine
 10
-5029.949103336254
 20
-3661.441369711033
 30
0.0
 11
-5029.949103336254
 21
-999.9359218007471
 31
0.0
1001
GENIUS_GENOBJ-N-SDF_13
1002
{
1000
OWNER
1000
GEN
1002
}
1001
GENIUS_GENODEF_13
1002
{
1000
HIER
1070
     0
1002
}
1002
{
1000
MANEDIT
1070
     0
1002
}
1002
{
1000
NOSEL
1070
     0
1002
}
1002
{
1000
BEHIND
1070
     0
1002
}
1002
{
1000
OTHER
1070
     0
1002
}
1002
{
1000
REACTOR
1002
}
1001
GENIUS_GENSCREG_15
1040
15.0
1040
0.2
1011
-5029.949103336254
1021
-3661.441369711033
1031
0.0
1011
-5029.949103336254
1021
-999.9359218007471
1031
0.0
1070
     4
  0
TEXT
  5
379EB
330
18
100
AcDbEntity
  8
一般
  6
Continuous
 62
     7
100
AcDbText
 10
-4034.526221946923
 20
-3580.249407707807
 30
0.0
 40
36.5066490238037
  1
【正面図　S=1:3】
 41
0.8299999999999998
100
AcDbText
  0
WIPEOUT
  5
379EC
330
18
100
AcDbEntity
  8
一般
  6
Continuous
 62
   255
370
    18
160
              6188
310
2C18000001000000241800000600000001010000D301AE3B871EAEC05C75AA37BD2CA6C00000000000000000307CE2C91F1FAEC0EFECE812522DA6C0000000000000000085A086F3BB1FAEC08A0F3D24E32DA6C0000000000000000008B085A05B20AEC0D01B4855702EA6C000000000000000009B3C40B8FE20AEC0465444
310
90F92EA6C00000000000000000CCF48F21A521AEC0D75A08C07E2FA6C00000000000000000AD84CBC24E22AEC032740AD0FF2FA6C00000000000000000D38ACA81FB22AEC096B263AC7C30A6C00000000000000000F9A0E943AB23AEC07207D341F530A6C0000000000000000092770EEE5D24AEC0833BC07D6931A6C00000
310
000000000000B703AC641325AEC0DCCC3E4ED931A6C00000000000000000C4BEC68BCB25AEC078B210A24432A6C00000000000000000FAF6F8468626AEC0E604A968AB32A6C000000000000000008C3077794327AEC0A28B2E920D33A6C00000000000000000519614060328AEC0B92E7E0F6B33A6C0000000000000000081
310
7947CFC428AEC05A4C2DD2C333A6C00000000000000000C1DF2DB78829AEC0F1F18BCC1734A6C00000000000000000CF1E929F4E2AAEC07AF8A6F16634A6C000000000000000001185EF69162BAEC0B9034A35B134A6C00000000000000000540E77F7DF2BAEC00464018CF634A6C000000000000000000A241429AB2CAEC0
310
57DA1BEB3635A6C00000000000000000346871DF772DAEC06F3EAC487235A6C000000000000000005A8AFDFA452EAEC0A2068B9BA835A6C00000000000000000B025F05B152FAEC044B157DBD935A6C00000000000000000C5A74EE2E52FAEC0590F7A000636A6C00000000000000000EE3EF16DB730AEC0607023042D36A6
310
C00000000000000000A6CF87DE8931AEC010AF4FE04E36A6C0000000000000000027F09E135D32AEC0D71EC68F6B36A6C0000000000000000075E9A4EC3033AEC0FC591A0E8336A6C000000000000000001EBDEE480534AEC036F0AC579536A6C00000000000000000C42EBD07DA34AEC0BAF5AB69A236A6C0000000000000
310
0000F1D04108AF35AEC087721342AA36A6C000000000000000001414A4298436AEC0F7B1ADDFAC36A6C000000000000000003757064B5937AEC087721342AA36A6C0000000000000000064F98A4B2E38AEC0BAF5AB69A236A6C000000000000000000A6B590A0339AEC036F0AC579536A6C00000000000000000B33EA366D7
310
39AEC0FC591A0E8336A6C000000000000000000138A93FAB3AAEC0D71EC68F6B36A6C000000000000000008258C0747E3BAEC010AF4FE04E36A6C000000000000000003AE956E5503CAEC0607023042D36A6C000000000000000006380F970223DAEC0590F7A000636A6C00000000000000000780258F7F23DAEC044B157DB
310
D935A6C00000000000000000CE9D4A58C23EAEC0A2068B9BA835A6C00000000000000000F4BFD673903FAEC06F3EAC487235A6C000000000000000001E04342A5D40AEC057DA1BEB3635A6C00000000000000000D419D15B2841AEC00464018CF634A6C0000000000000000017A358E9F141AEC0B9034A35B134A6C0000000
310
00000000005909B6B3B942AEC07AF8A6F16634A6C0000000000000000067481A9C7F43AEC0F1F18BCC1734A6C00000000000000000A7AE00844344AEC05A4C2DD2C333A6C00000000000000000D791334D0545AEC0B92E7E0F6B33A6C000000000000000009CF7D0D9C445AEC0A28B2E920D33A6C000000000000000002E31
310
4F0C8246AEC0E604A968AB32A6C00000000000000000646981C73C47AEC078B210A24432A6C0000000000000000071249CEEF447AEC0DCCC3E4ED931A6C0000000000000000096B03965AA48AEC0833BC07D6931A6C000000000000000002F875E0F5D49AEC07207D341F530A6C00000000000000000559D7DD10C4AAEC096
310
B263AC7C30A6C000000000000000007BA37C90B94AAEC032740AD0FF2FA6C000000000000000005C33B831634BAEC0D75A08C07E2FA6C000000000000000008DEB079B094CAEC046544490F92EA6C000000000000000002078C2B2AC4CAEC0D01B4855702EA6C00000000000000000A387C15F4C4DAEC08A0F3D24E32DA6C0
310
0000000000000000F8AB6589E84DAEC0EFECE812522DA6C0000000000000000055269A17814EAEC05C75AA37BD2CA6C00000000000000000E69DD8F2154FAEC000FB75A9242CA6C0000000000000000083C02C04A74FAEC0ACD6D17F882BA6C00000000000000000C9CC37353450AEC028C7D2D2E82AA6C000000000000000
310
003E053470BD50AEC0953A18BB452AA6C00000000000000000CF0BF89F4251AEC06482C8519F29A6C000000000000000002A25FAAFC351AEC083F28CB0F528A6C000000000000000008D63538C4052AEC05DEC8DF14828A6C0000000000000000069B8C221B952AEC037D66E2F9927A6C000000000000000007BECAF5D2D53
310
AEC09EFF4985E626A6C00000000000000000D37D2E2E9D53AEC07973AC0E3126A6C000000000000000006F6300820854AEC06CB891E77825A6C00000000000000000DDB598486F54AEC036805F2CBE24A6C000000000000000009A3C1E72D154AEC0A446E1F90024A6C00000000000000000B1DF6DEF2E55AEC0E0E0436D41
310
23A6C0000000000000000052FD1CB28755AEC0B0FD10A47F22A6C00000000000000000E9A27BACDB55AEC06F972ABCBB21A6C0000000000000000071A996D12A56AEC06058C6D3F520A6C00000000000000000B1B439157556AEC01FF268092E20A6C00000000000000000FC14F16BBA56AEC0DC68E17B641FA6C000000000
310
00000000508B0BCBFA56AEC02753444A991EA6C0000000000000000067EF9B283657AEC0FC0EE793CC1DA6C000000000000000009AB77A7B6C57AEC0D6EC5A78FE1CA6C000000000000000003C6247BB9D57AEC0805168172F1CA6C0000000000000000050C069E0C957AEC06BCF09915E1BA6C00000000000000000572113
310
E4F057AEC0423867058D1AA6C0000000000000000007603FC01258AEC08BA7D094BA19A6C00000000000000000D0CFB56F2F58AEC00A87B95FE718A6C00000000000000000F40A0AEE4658AEC0BA8DB3861318A6C000000000000000002EA19C375958AEC013BA692A3F17A6C00000000000000000B2A69B496658AEC06B48
310
9B6B6A16A6C000000000000000007F2303226E58AEC040A6166B9515A6C00000000000000000EF629DBF7058AEC01C63B449C014A6C000000000000000007F2303226E58AEC0F91F5228EB13A6C00000000000000000B2A69B496658AEC0CD7DCD271613A6C000000000000000002EA19C375958AEC0260CFF684112A6C000
310
00000000000000F40A0AEE4658AEC07E38B50C6D11A6C00000000000000000D0CFB56F2F58AEC02E3FAF339910A6C0000000000000000007603FC01258AEC0AE1E98FEC50FA6C00000000000000000572113E4F057AEC0F78D018EF30EA6C0000000000000000050C069E0C957AEC0CEF65E02220EA6C00000000000000000
310
3C6247BB9D57AEC0B874007C510DA6C000000000000000009AB77A7B6C57AEC063D90D1B820CA6C0000000000000000067EF9B283657AEC03DB781FFB30BA6C00000000000000000508B0BCBFA56AEC011732449E70AA6C00000000000000000FC14F16BBA56AEC05C5D87171C0AA6C00000000000000000B1B439157556AE
310
C019D4FF895209A6C0000000000000000071A996D12A56AEC0D86DA2BF8A08A6C00000000000000000E9A27BACDB55AEC0CA2E3ED7C407A6C0000000000000000052FD1CB28755AEC089C857EF0007A6C00000000000000000B1DF6DEF2E55AEC059E524263F06A6C000000000000000009A3C1E72D154AEC0947F87997F05
310
A6C00000000000000000DDB598486F54AEC002460967C204A6C000000000000000006F6300820854AEC0CC0DD7AB0704A6C00000000000000000D37D2E2E9D53AEC0C052BC844F03A6C000000000000000007BECAF5D2D53AEC09BC61E0E9A02A6C0000000000000000069B8C221B952AEC001F0F963E701A6C00000000000
310
0000008D63538C4052AEC0DBD9DAA13701A6C000000000000000002A25FAAFC351AEC0B5D3DBE28A00A6C00000000000000000CF0BF89F4251AEC0D543A041E1FFA5C000000000000000003E053470BD50AEC0A38B50D83AFFA5C00000000000000000C9CC37353450AEC010FF95C097FEA5C0000000000000000083C02C04
310
A74FAEC08DEF9613F8FDA5C00000000000000000E69DD8F2154FAEC038CBF2E95BFDA5C0000000000000000055269A17814EAEC0DC50BE5BC3FCA5C00000000000000000F8AB6589E84DAEC04AD97F802EFCA5C00000000000000000A387C15F4C4DAEC0AEB62B6F9DFBA5C000000000000000002078C2B2AC4CAEC068AA20
310
3E10FBA5C000000000000000008DEB079B094CAEC0F271240387FAA5C000000000000000005C33B831634BAEC0626B60D301FAA5C000000000000000007BA37C90B94AAEC006525EC380F9A5C00000000000000000559D7DD10C4AAEC0A31305E703F9A5C000000000000000002F875E0F5D49AEC0C7BE95518BF8A5C00000
310
00000000000096B03965AA48AEC0B68AA81517F8A5C0000000000000000071249CEEF447AEC05DF92945A7F7A5C00000000000000000646981C73C47AEC0C11358F13BF7A5C000000000000000002E314F0C8246AEC053C1BF2AD5F6A5C000000000000000009CF7D0D9C445AEC0973A3A0173F6A5C00000000000000000D7
310
91334D0545AEC08097EA8315F6A5C00000000000000000A7AE00844344AEC0DE793BC1BCF5A5C0000000000000000067481A9C7F43AEC048D4DCC668F5A5C000000000000000005909B6B3B942AEC0BFCDC1A119F5A5C0000000000000000017A358E9F141AEC080C21E5ECFF4A5C00000000000000000D419D15B2841AEC0
310
356267078AF4A5C000000000000000001E04342A5D40AEC0E1EB4CA849F4A5C00000000000000000F4BFD673903FAEC0C987BC4A0EF4A5C00000000000000000CE9D4A58C23EAEC096BFDDF7D7F3A5C00000000000000000780258F7F23DAEC0F41411B8A6F3A5C000000000000000006380F970223DAEC0E0B6EE927AF3A5
310
C000000000000000003AE956E5503CAEC0D955458F53F3A5C000000000000000008258C0747E3BAEC0291719B331F3A5C000000000000000000138A93FAB3AAEC061A7A20315F3A5C00000000000000000B33EA366D739AEC03D6C4E85FDF2A5C000000000000000000A6B590A0339AEC002D6BB3BEBF2A5C0000000000000
310
000064F98A4B2E38AEC07ED0BC29DEF2A5C000000000000000003757064B5937AEC0B2535551D6F2A5C000000000000000001414A4298436AEC04114BBB3D3F2A5C00000000000000000F1D04108AF35AEC0B2535551D6F2A5C00000000000000000C42EBD07DA34AEC07ED0BC29DEF2A5C000000000000000001EBDEE4805
310
34AEC002D6BB3BEBF2A5C0000000000000000075E9A4EC3033AEC03D6C4E85FDF2A5C0000000000000000027F09E135D32AEC061A7A20315F3A5C00000000000000000A6CF87DE8931AEC0291719B331F3A5C00000000000000000EE3EF16DB730AEC0D955458F53F3A5C00000000000000000C5A74EE2E52FAEC0E0B6EE92
310
7AF3A5C00000000000000000B025F05B152FAEC0F41411B8A6F3A5C000000000000000005A8AFDFA452EAEC096BFDDF7D7F3A5C00000000000000000346871DF772DAEC0C987BC4A0EF4A5C000000000000000000A241429AB2CAEC0E1EB4CA849F4A5C00000000000000000540E77F7DF2BAEC0356267078AF4A5C0000000
310
00000000001185EF69162BAEC080C21E5ECFF4A5C00000000000000000CF1E929F4E2AAEC0BFCDC1A119F5A5C00000000000000000C1DF2DB78829AEC048D4DCC668F5A5C00000000000000000817947CFC428AEC0DE793BC1BCF5A5C00000000000000000519614060328AEC08097EA8315F6A5C000000000000000008C30
310
77794327AEC0973A3A0173F6A5C00000000000000000FAF6F8468626AEC053C1BF2AD5F6A5C00000000000000000C4BEC68BCB25AEC0C11358F13BF7A5C00000000000000000B703AC641325AEC05DF92945A7F7A5C0000000000000000092770EEE5D24AEC0B68AA81517F8A5C00000000000000000F9A0E943AB23AEC0C7
310
BE95518BF8A5C00000000000000000D38ACA81FB22AEC0A31305E703F9A5C00000000000000000AD84CBC24E22AEC006525EC380F9A5C00000000000000000CCF48F21A521AEC0626B60D301FAA5C000000000000000009B3C40B8FE20AEC0F271240387FAA5C0000000000000000008B085A05B20AEC068AA203E10FBA5C0
310
000000000000000085A086F3BB1FAEC0AEB62B6F9DFBA5C00000000000000000307CE2C91F1FAEC04AD97F802EFCA5C00000000000000000D301AE3B871EAEC0DC50BE5BC3FCA5C00000000000000000428A6F60F21DAEC038CBF2E95BFDA5C00000000000000000A6671B4F611DAEC08DEF9613F8FDA5C000000000000000
310
00605B101ED41CAEC010FF95C097FEA5C00000000000000000EA2214E34A1CAEC0A38B50D83AFFA5C00000000000000000591C50B3C51BAEC0D543A041E1FFA5C00000000000000000FE024EA3441BAEC0B5D3DBE28A00A6C000000000000000009BC4F4C6C71AAEC0DBD9DAA13701A6C00000000000000000BF6F85314F1A
310
AEC001F0F963E701A6C00000000000000000AD3B98F5DA19AEC09BC61E0E9A02A6C0000000000000000055AA19256B19AEC0C052BC844F03A6C00000000000000000B9C447D1FF18AEC0CC0DD7AB0704A6C000000000000000004B72AF0A9918AEC002460967C204A6C000000000000000008FEB29E13618AEC0947F87997F
310
05A6C000000000000000007748DA63D917AEC059E524263F06A6C00000000000000000D62A2BA18017AEC089C857EF0007A6C000000000000000003F85CCA62C17AEC0CA2E3ED7C407A6C00000000000000000B77EB181DD16AEC0D86DA2BF8A08A6C0000000000000000077730E3E9316AEC019D4FF895209A6C000000000
310
000000002C1357E74D16AEC05C5D87171C0AA6C00000000000000000D89C3C880D16AEC011732449E70AA6C00000000000000000C138AC2AD215AEC03DB781FFB30BA6C000000000000000008E70CDD79B15AEC063D90D1B820CA6C00000000000000000ECC500986A15AEC0B874007C510DA6C00000000000000000D867DE
310
723E15AEC0CEF65E02220EA6C00000000000000000D106356F1715AEC0F78D018EF30EA6C0000000000000000021C80893F514AEC0AE1E98FEC50FA6C00000000000000000585892E3D814AEC02E3FAF339910A6C00000000000000000341D3E65C114AEC07E38B50C6D11A6C00000000000000000FA86AB1BAF14AEC0260C
310
FF684112A6C000000000000000007681AC09A214AEC0CD7DCD271613A6C00000000000000000A90445319A14AEC0F91F5228EB13A6C0000000000000000039C5AA939714AEC01C63B449C014A6C00000000000000000A90445319A14AEC040A6166B9515A6C000000000000000007681AC09A214AEC06B489B6B6A16A6C000
310
00000000000000FA86AB1BAF14AEC013BA692A3F17A6C00000000000000000341D3E65C114AEC0BA8DB3861318A6C00000000000000000585892E3D814AEC00A87B95FE718A6C0000000000000000021C80893F514AEC08BA7D094BA19A6C00000000000000000D106356F1715AEC0423867058D1AA6C00000000000000000
310
D867DE723E15AEC06BCF09915E1BA6C00000000000000000ECC500986A15AEC0805168172F1CA6C000000000000000008E70CDD79B15AEC0D6EC5A78FE1CA6C00000000000000000C138AC2AD215AEC0FC0EE793CC1DA6C00000000000000000D89C3C880D16AEC02753444A991EA6C000000000000000002C1357E74D16AE
310
C0DC68E17B641FA6C0000000000000000077730E3E9316AEC01FF268092E20A6C00000000000000000B77EB181DD16AEC06058C6D3F520A6C000000000000000003F85CCA62C17AEC06F972ABCBB21A6C00000000000000000D62A2BA18017AEC0B0FD10A47F22A6C000000000000000007748DA63D917AEC0E0E0436D4123
310
A6C000000000000000008FEB29E13618AEC0A446E1F90024A6C000000000000000004B72AF0A9918AEC036805F2CBE24A6C00000000000000000B9C447D1FF18AEC06CB891E77825A6C0000000000000000055AA19256B19AEC07973AC0E3126A6C00000000000000000AD3B98F5DA19AEC09EFF4985E626A6C00000000000
310
000000BF6F85314F1AAEC037D66E2F9927A6C000000000000000009BC4F4C6C71AAEC05DEC8DF14828A6C00000000000000000FE024EA3441BAEC083F28CB0F528A6C00000000000000000591C50B3C51BAEC06482C8519F29A6C00000000000000000EA2214E34A1CAEC0953A18BB452AA6C00000000000000000605B101E
310
D41CAEC028C7D2D2E82AA6C00000000000000000A6671B4F611DAEC0ACD6D17F882BA6C00000000000000000428A6F60F21DAEC000FB75A9242CA6C00000000000000000D301AE3B871EAEC05C75AA37BD2CA6C00000000000000000
100
AcDbWipeout
 90
        0
 10
-3884.220211904837
 20
-2843.3376440315
 30
0.0
 11
33.92416341948711
 21
0.0
 31
0.0
 12
0.0
 22
33.92416341948711
 32
0.0
 13
1.0
 23
1.0
340
0
 70
     7
280
     1
281
    50
282
    50
283
     0
360
0
 71
     2
 91
      257
 14
0.3535533905932766
 24
0.3535533905932748
 14
0.3447702723685353
 24
0.362123541475734
 14
0.3357794774235003
 24
0.3704755626774805
 14
0.3265864214768897
 24
0.3786044232532424
 14
0.3171966420818251
 24
0.3865052266813693
 14
0.3076157952903174
 24
0.3941732138133034
 14
0.2978496522462137
 24
0.4016037657403233
 14
0.2879040957089245
 24
0.4087924065757926
 14
0.2777851165098042
 24
0.4157348061512725
 14
0.2674988099435467
 24
0.4224267826248544
 14
0.2570513720966119
 24
0.4288643050001362
 14
0.2464490961148869
 24
0.4350434955543561
 14
0.2356983684129972
 24
0.4409606321741775
 14
0.2248056648273007
 24
0.4466121505977583
 14
0.2137775467151357
 24
0.4519946465617215
 14
0.202620657002484
 24
0.4571048778517657
 14
0.1913417161825492
 24
0.461939766255643
 14
0.1799475182674968
 24
0.4664963994173696
 14
0.168444926696111
 24
0.4707720325915101
 14
0.1568408701994457
 24
0.4747640902965182
 14
0.1451423386272239
 24
0.4784701678661047
 14
0.1333563787374459
 24
0.4818880328977198
 14
0.1214900899516351
 24
0.4850156265972716
 14
0.1095506200784371
 24
0.4878510650192638
 14
0.0975451610080711
 24
0.4903926402016152
 14
0.0854809443801514
 24
0.492638821194471
 14
0.0733652372276765
 24
0.4945882549823901
 14
0.0612053375996027
 24
0.4962397672993548
 14
0.0490085701647871
 24
0.4975923633360981
 14
0.0367822817998302
 24
0.4986452283393454
 14
0.024533837163716
 24
0.4993977281025863
 14
0.0122706142614533
 24
0.4998494093481023
 14
0.0
 24
0.4999999999999991
 14
-0.0122706142614533
 24
0.4998494093481023
 14
-0.024533837163716
 24
0.4993977281025863
 14
-0.0367822817998302
 24
0.4986452283393454
 14
-0.0490085701647871
 24
0.4975923633360981
 14
-0.0612053375996027
 24
0.4962397672993548
 14
-0.0733652372276765
 24
0.4945882549823901
 14
-0.0854809443801514
 24
0.492638821194471
 14
-0.0975451610080711
 24
0.4903926402016152
 14
-0.1095506200784371
 24
0.4878510650192638
 14
-0.1214900899516351
 24
0.4850156265972716
 14
-0.1333563787374459
 24
0.4818880328977198
 14
-0.1451423386272239
 24
0.4784701678661047
 14
-0.1568408701994457
 24
0.4747640902965182
 14
-0.168444926696111
 24
0.4707720325915101
 14
-0.1799475182674968
 24
0.4664963994173696
 14
-0.1913417161825492
 24
0.461939766255643
 14
-0.202620657002484
 24
0.4571048778517657
 14
-0.2137775467151357
 24
0.4519946465617215
 14
-0.2248056648273007
 24
0.4466121505977583
 14
-0.2356983684129972
 24
0.4409606321741775
 14
-0.2464490961148869
 24
0.4350434955543561
 14
-0.2570513720966119
 24
0.4288643050001362
 14
-0.2674988099435467
 24
0.4224267826248544
 14
-0.2777851165098042
 24
0.4157348061512725
 14
-0.2879040957089245
 24
0.4087924065757926
 14
-0.2978496522462137
 24
0.4016037657403233
 14
-0.3076157952903174
 24
0.3941732138133034
 14
-0.3171966420818251
 24
0.3865052266813693
 14
-0.3265864214768897
 24
0.3786044232532424
 14
-0.3357794774235003
 24
0.3704755626774805
 14
-0.3447702723685353
 24
0.362123541475734
 14
-0.3535533905932766
 24
0.3535533905932748
 14
-0.3621235414757251
 24
0.3447702723685344
 14
-0.370475562677484
 24
0.335779477423511
 14
-0.3786044232532504
 24
0.3265864214768905
 14
-0.3865052266813649
 24
0.3171966420818242
 14
-0.3941732138133034
 24
0.3076157952903147
 14
-0.4016037657403189
 24
0.2978496522462182
 14
-0.4087924065757846
 24
0.2879040957089236
 14
-0.4157348061512636
 24
0.2777851165098033
 14
-0.4224267826248536
 24
0.2674988099435502
 14
-0.4288643050001326
 24
0.2570513720966119
 14
-0.4350434955543534
 24
0.2464490961148931
 14
-0.4409606321741677
 24
0.2356983684130007
 14
-0.4466121505977583
 24
0.224805664827306
 14
-0.4519946465617153
 24
0.2137775467151428
 14
-0.4571048778517621
 24
0.2026206570024973
 14
-0.4619397662556395
 24
0.1913417161825475
 14
-0.4664963994173661
 24
0.1799475182674959
 14
-0.4707720325915119
 24
0.1684449266961128
 14
-0.4747640902965173
 24
0.1568408701994484
 14
-0.4784701678661065
 24
0.1451423386272337
 14
-0.4818880328977144
 24
0.1333563787374512
 14
-0.4850156265972743
 24
0.1214900899516342
 14
-0.4878510650192567
 24
0.109550620078438
 14
-0.4903926402016054
 24
0.0975451610080666
 14
-0.4926388211944612
 24
0.0854809443801532
 14
-0.4945882549823892
 24
0.0733652372276836
 14
-0.4962397672993575
 24
0.0612053375996116
 14
-0.4975923633360964
 24
0.0490085701647835
 14
-0.4986452283393419
 24
0.0367822817998364
 14
-0.4993977281025792
 24
0.0245338371637125
 14
-0.4998494093481014
 24
0.0122706142614604
 14
-0.5
 24
0.0000000000000036
 14
-0.4998494093481014
 24
-0.0122706142614524
 14
-0.4993977281025792
 24
-0.0245338371637054
 14
-0.4986452283393419
 24
-0.0367822817998293
 14
-0.4975923633360964
 24
-0.0490085701647764
 14
-0.4962397672993575
 24
-0.0612053375996044
 14
-0.4945882549823892
 24
-0.0733652372276765
 14
-0.4926388211944612
 24
-0.0854809443801461
 14
-0.4903926402016054
 24
-0.0975451610080595
 14
-0.4878510650192567
 24
-0.1095506200784309
 14
-0.4850156265972743
 24
-0.1214900899516271
 14
-0.4818880328977144
 24
-0.1333563787374441
 14
-0.4784701678661065
 24
-0.1451423386272266
 14
-0.4747640902965173
 24
-0.1568408701994404
 14
-0.4707720325915119
 24
-0.1684449266961057
 14
-0.4664963994173661
 24
-0.1799475182674888
 14
-0.4619397662556395
 24
-0.1913417161825404
 14
-0.4571048778517621
 24
-0.2026206570024902
 14
-0.4519946465617153
 24
-0.2137775467151357
 14
-0.4466121505977583
 24
-0.224805664827298
 14
-0.4409606321741677
 24
-0.2356983684129936
 14
-0.4350434955543534
 24
-0.246449096114886
 14
-0.4288643050001326
 24
-0.2570513720966048
 14
-0.4224267826248536
 24
-0.2674988099435422
 14
-0.4157348061512636
 24
-0.2777851165097953
 14
-0.4087924065757846
 24
-0.2879040957089165
 14
-0.4016037657403189
 24
-0.2978496522462102
 14
-0.3941732138133034
 24
-0.3076157952903076
 14
-0.3865052266813649
 24
-0.3171966420818171
 14
-0.3786044232532504
 24
-0.3265864214768825
 14
-0.370475562677484
 24
-0.335779477423503
 14
-0.3621235414757251
 24
-0.3447702723685273
 14
-0.3535533905932766
 24
-0.3535533905932677
 14
-0.3447702723685353
 24
-0.3621235414757269
 14
-0.3357794774235003
 24
-0.3704755626774734
 14
-0.3265864214768897
 24
-0.3786044232532353
 14
-0.3171966420818251
 24
-0.3865052266813622
 14
-0.3076157952903174
 24
-0.3941732138132963
 14
-0.2978496522462137
 24
-0.4016037657403162
 14
-0.2879040957089245
 24
-0.4087924065757855
 14
-0.2777851165098042
 24
-0.4157348061512653
 14
-0.2674988099435467
 24
-0.4224267826248465
 14
-0.2570513720966119
 24
-0.4288643050001291
 14
-0.2464490961148869
 24
-0.435043495554349
 14
-0.2356983684129972
 24
-0.4409606321741704
 14
-0.2248056648273007
 24
-0.4466121505977503
 14
-0.2137775467151357
 24
-0.4519946465617144
 14
-0.202620657002484
 24
-0.4571048778517577
 14
-0.1913417161825492
 24
-0.4619397662556359
 14
-0.1799475182674968
 24
-0.4664963994173625
 14
-0.168444926696111
 24
-0.470772032591503
 14
-0.1568408701994457
 24
-0.4747640902965111
 14
-0.1451423386272239
 24
-0.4784701678660976
 14
-0.1333563787374459
 24
-0.4818880328977126
 14
-0.1214900899516351
 24
-0.4850156265972645
 14
-0.1095506200784371
 24
-0.4878510650192567
 14
-0.0975451610080711
 24
-0.4903926402016081
 14
-0.0854809443801514
 24
-0.4926388211944639
 14
-0.0733652372276765
 24
-0.494588254982383
 14
-0.0612053375996027
 24
-0.4962397672993477
 14
-0.0490085701647871
 24
-0.497592363336091
 14
-0.0367822817998302
 24
-0.4986452283393383
 14
-0.024533837163716
 24
-0.4993977281025792
 14
-0.0122706142614533
 24
-0.4998494093480952
 14
0.0
 24
-0.499999999999992
 14
0.0122706142614533
 24
-0.4998494093480952
 14
0.024533837163716
 24
-0.4993977281025792
 14
0.0367822817998302
 24
-0.4986452283393383
 14
0.0490085701647871
 24
-0.497592363336091
 14
0.0612053375996027
 24
-0.4962397672993477
 14
0.0733652372276765
 24
-0.494588254982383
 14
0.0854809443801514
 24
-0.4926388211944639
 14
0.0975451610080711
 24
-0.4903926402016081
 14
0.1095506200784371
 24
-0.4878510650192567
 14
0.1214900899516351
 24
-0.4850156265972645
 14
0.1333563787374459
 24
-0.4818880328977126
 14
0.1451423386272239
 24
-0.4784701678660976
 14
0.1568408701994457
 24
-0.4747640902965111
 14
0.168444926696111
 24
-0.470772032591503
 14
0.1799475182674968
 24
-0.4664963994173625
 14
0.1913417161825492
 24
-0.4619397662556359
 14
0.202620657002484
 24
-0.4571048778517577
 14
0.2137775467151357
 24
-0.4519946465617144
 14
0.2248056648273007
 24
-0.4466121505977503
 14
0.2356983684129972
 24
-0.4409606321741704
 14
0.2464490961148869
 24
-0.435043495554349
 14
0.2570513720966119
 24
-0.4288643050001291
 14
0.2674988099435467
 24
-0.4224267826248465
 14
0.2777851165098042
 24
-0.4157348061512653
 14
0.2879040957089245
 24
-0.4087924065757855
 14
0.2978496522462137
 24
-0.4016037657403162
 14
0.3076157952903174
 24
-0.3941732138132963
 14
0.3171966420818251
 24
-0.3865052266813622
 14
0.3265864214768897
 24
-0.3786044232532353
 14
0.3357794774235003
 24
-0.3704755626774734
 14
0.3447702723685353
 24
-0.3621235414757269
 14
0.3535533905932766
 24
-0.3535533905932677
 14
0.3621235414757251
 24
-0.3447702723685273
 14
0.3704755626774698
 24
-0.335779477423503
 14
0.3786044232532362
 24
-0.3265864214768825
 14
0.3865052266813649
 24
-0.3171966420818171
 14
0.3941732138133034
 24
-0.3076157952903076
 14
0.4016037657403189
 24
-0.2978496522462102
 14
0.4087924065757846
 24
-0.2879040957089165
 14
0.4157348061512636
 24
-0.2777851165097953
 14
0.4224267826248536
 24
-0.2674988099435422
 14
0.4288643050001326
 24
-0.2570513720966048
 14
0.4350434955543534
 24
-0.246449096114886
 14
0.4409606321741677
 24
-0.2356983684129936
 14
0.4466121505977441
 24
-0.224805664827298
 14
0.4519946465617153
 24
-0.2137775467151357
 14
0.4571048778517621
 24
-0.2026206570024902
 14
0.4619397662556395
 24
-0.1913417161825404
 14
0.4664963994173661
 24
-0.1799475182674888
 14
0.4707720325915119
 24
-0.1684449266961057
 14
0.4747640902965173
 24
-0.1568408701994404
 14
0.4784701678661065
 24
-0.1451423386272266
 14
0.4818880328977144
 24
-0.1333563787374441
 14
0.4850156265972743
 24
-0.1214900899516271
 14
0.4878510650192567
 24
-0.1095506200784309
 14
0.4903926402016054
 24
-0.0975451610080595
 14
0.4926388211944612
 24
-0.0854809443801461
 14
0.4945882549823892
 24
-0.0733652372276765
 14
0.4962397672993575
 24
-0.0612053375996044
 14
0.4975923633360964
 24
-0.0490085701647764
 14
0.4986452283393419
 24
-0.0367822817998293
 14
0.4993977281025792
 24
-0.0245338371637054
 14
0.4998494093481014
 24
-0.0122706142614524
 14
0.5
 24
0.0000000000000036
 14
0.4998494093481014
 24
0.0122706142614604
 14
0.4993977281025792
 24
0.0245338371637125
 14
0.4986452283393419
 24
0.0367822817998364
 14
0.4975923633360964
 24
0.0490085701647835
 14
0.4962397672993575
 24
0.0612053375996116
 14
0.4945882549823892
 24
0.0733652372276836
 14
0.4926388211944612
 24
0.0854809443801532
 14
0.4903926402016054
 24
0.0975451610080666
 14
0.4878510650192567
 24
0.109550620078438
 14
0.4850156265972743
 24
0.1214900899516342
 14
0.4818880328977144
 24
0.1333563787374512
 14
0.4784701678661065
 24
0.1451423386272337
 14
0.4747640902965173
 24
0.1568408701994484
 14
0.4707720325915119
 24
0.1684449266961128
 14
0.4664963994173661
 24
0.1799475182674959
 14
0.4619397662556395
 24
0.1913417161825475
 14
0.4571048778517621
 24
0.2026206570024973
 14
0.4519946465617153
 24
0.2137775467151428
 14
0.4466121505977441
 24
0.224805664827306
 14
0.4409606321741677
 24
0.2356983684130007
 14
0.4350434955543534
 24
0.2464490961148931
 14
0.4288643050001326
 24
0.2570513720966119
 14
0.4224267826248536
 24
0.2674988099435502
 14
0.4157348061512636
 24
0.2777851165098033
 14
0.4087924065757846
 24
0.2879040957089236
 14
0.4016037657403189
 24
0.2978496522462182
 14
0.3941732138133034
 24
0.3076157952903147
 14
0.3865052266813649
 24
0.3171966420818242
 14
0.3786044232532362
 24
0.3265864214768905
 14
0.3704755626774698
 24
0.335779477423511
 14
0.3621235414757251
 24
0.3447702723685344
 14
0.3535533905932766
 24
0.3535533905932748
290
     0
  0
CIRCLE
  5
379ED
330
18
100
AcDbEntity
  8
一般
  6
Continuous
 62
     7
370
    18
100
AcDbCircle
 10
-3867.258130195094
 20
-2826.375562321757
 30
0.0
 40
16.96208170974343
  0
INSERT
  5
379EE
330
18
100
AcDbEntity
  8
一般
 62
     7
100
AcDbBlockReference
  2
グループ-23
 10
-6212.344499263518
 20
-2591.23198890605
 30
0.0
 41
4.997501249999999
 42
4.997501249999999
 43
4.997501249999999
  0
TEXT
  5
379EF
330
18
100
AcDbEntity
  8
一般
  6
Continuous
 62
     7
100
AcDbText
 10
-4034.526221946923
 20
-1988.684019695873
 30
0.0
 40
36.5066490238037
  1
【断面図　S=1:3】
 41
0.8299999999999998
100
AcDbText
  0
TEXT
  5
379F0
330
18
100
AcDbEntity
  8
一般
  6
Continuous
 62
     7
100
AcDbText
 10
-4763.225657267355
 20
-2455.335536253448
 30
0.0
 40
36.5066490238037
  1
フタ
 41
0.8299999999999998
100
AcDbText
  0
TEXT
  5
379F1
330
18
100
AcDbEntity
  8
一般
  6
Continuous
 62
     7
100
AcDbText
 10
-4758.918984560181
 20
-2506.067784020619
 30
0.0
 40
36.5066490238037
  1
塗装仕上/ダークブラウン
 41
0.8299999999999998
100
AcDbText
  0
WIPEOUT
  5
379F2
330
18
100
AcDbEntity
  8
一般
  6
Continuous
 62
   255
370
    18
160
               188
310
BC00000001000000B400000006000000070000008AA7BC2D6430AFC0739751E7F098A4C000000000000000006D7A66D1201FB0C0997BD585CAC4A5C000000000000000006D7A66D1201FB0C0AD6D1755B75AA6C0000000000000000051337BB0C62EACC0AD6D1755B75AA6C0000000000000000051337BB0C62EACC0997BD5
310
85CAC4A5C00000000000000000A1808B25A43CADC0739751E7F098A4C000000000000000008AA7BC2D6430AFC0739751E7F098A4C00000000000000000
100
AcDbWipeout
 90
        0
 10
-4127.128195195092
 20
-2861.358071071757
 30
0.0
 11
519.7401299999955
 21
0.0
 31
0.0
 12
0.0
 22
519.7401299999955
 32
0.0
 13
1.0
 23
1.0
340
0
 70
     7
280
     1
281
    50
282
    50
283
     0
360
0
 71
     2
 91
        7
 14
-0.2403846153846176
 24
0.0673076923076874
 14
-0.5
 24
0.3557692307692284
 14
-0.5
 24
0.4999999999999999
 14
0.4999999999999991
 24
0.4999999999999999
 14
0.4999999999999991
 24
0.3557692307692284
 14
0.2403846153846168
 24
0.0673076923076874
 14
-0.2403846153846176
 24
0.0673076923076874
290
     0
  0
LWPOLYLINE
  5
379F3
330
18
100
AcDbEntity
  8
一般
  6
Continuous
 62
     7
370
    18
100
AcDbPolyline
 90
        6
 70
   128
 43
0.0
 10
-3992.195661445094
 20
-2636.470514821756
 10
-4127.128195195092
 20
-2786.395552321756
 10
-4127.128195195092
 20
-2861.358071071757
 10
-3607.388065195096
 20
-2861.358071071757
 10
-3607.388065195096
 20
-2786.395552321756
 10
-3742.320598945094
 20
-2636.470514821756
  0
LINE
  5
379F4
330
18
100
AcDbEntity
  8
一般
  6
Continuous
 62
     7
370
    18
100
AcDbLine
 10
-4127.128195195092
 20
-2786.395552321756
 30
0.0
 11
-3607.388065195096
 21
-2786.395552321756
 31
0.0
  0
LINE
  5
379F5
330
18
100
AcDbEntity
  8
一般
  6
Continuous
 62
     7
370
    18
100
AcDbLine
 10
-3992.195661445094
 20
-2636.470514821756
 30
0.0
 11
-3742.320598945094
 21
-2636.470514821756
 31
0.0
  0
LWPOLYLINE
  5
379F6
330
18
100
AcDbEntity
  8
一般
  6
ラインタイプ-5
 62
     7
370
    18
100
AcDbPolyline
 90
        4
 70
   129
 43
0.0
 10
-4119.631943320094
 20
-1248.811715349744
 10
-3614.884317070094
 20
-1248.811715349744
 10
-3614.884317070094
 20
-1753.559341599744
 10
-4119.631943320094
 20
-1753.559341599744
  0
LWPOLYLINE
  5
379F7
330
18
100
AcDbEntity
  8
一般
  6
ラインタイプ-5
 62
     7
370
    18
100
AcDbPolyline
 90
        4
 70
   129
 43
0.0
 10
-4127.128195195094
 20
-1241.315463474744
 10
-3607.388065195094
 20
-1241.315463474744
 10
-3607.388065195094
 20
-1761.055593474744
 10
-4127.128195195094
 20
-1761.055593474744
  0
LINE
  5
379F8
330
18
100
AcDbEntity
  8
一般
  6
Continuous
 62
     7
370
    18
100
AcDbLine
 10
-3627.378070195092
 20
-1741.065588474743
 30
0.0
 11
-4107.138190195092
 21
-1741.065588474743
 31
0.0
  0
LINE
  5
379F9
330
18
100
AcDbEntity
  8
一般
  6
Continuous
 62
     7
370
    18
100
AcDbLine
 10
-4107.138190195092
 20
-1741.065588474743
 30
0.0
 11
-4107.138190195092
 21
-1261.305468474743
 31
0.0
  0
LINE
  5
379FA
330
18
100
AcDbEntity
  8
一般
  6
Continuous
 62
     7
370
    18
100
AcDbLine
 10
-4107.138190195092
 20
-1261.305468474743
 30
0.0
 11
-3627.378070195092
 21
-1261.305468474743
 31
0.0
  0
LINE
  5
379FB
330
18
100
AcDbEntity
  8
一般
  6
Continuous
 62
     7
370
    18
100
AcDbLine
 10
-3627.378070195092
 20
-1261.305468474743
 30
0.0
 11
-3627.378070195092
 21
-1741.065588474743
 31
0.0
  0
LINE
  5
379FC
330
18
100
AcDbEntity
  8
一般
  6
Continuous
 62
     7
370
    18
100
AcDbLine
 10
-4117.133192695097
 20
-1251.310465974745
 30
0.0
 11
-4117.133192695097
 21
-1751.06059097474
 31
0.0
  0
LINE
  5
379FD
330
18
100
AcDbEntity
  8
一般
  6
Continuous
 62
     7
370
    18
100
AcDbLine
 10
-4117.133192695097
 20
-1751.06059097474
 30
0.0
 11
-3617.383067695094
 21
-1751.06059097474
 31
0.0
  0
LINE
  5
379FE
330
18
100
AcDbEntity
  8
一般
  6
Continuous
 62
     7
370
    18
100
AcDbLine
 10
-3617.383067695094
 20
-1751.06059097474
 30
0.0
 11
-3617.383067695094
 21
-1251.310465974745
 31
0.0
  0
LINE
  5
379FF
330
18
100
AcDbEntity
  8
一般
  6
Continuous
 62
     7
370
    18
100
AcDbLine
 10
-3617.383067695094
 20
-1251.310465974745
 30
0.0
 11
-4117.133192695097
 21
-1251.310465974745
 31
0.0
  0
TEXT
  5
37A00
330
18
100
AcDbEntity
  8
一般
  6
Continuous
 62
     7
100
AcDbText
 10
-4860.596474361153
 20
-1224.078022334154
 30
0.0
 40
36.5066490238037
  1
支柱
 41
0.8299999999999998
100
AcDbText
  0
TEXT
  5
37A01
330
18
100
AcDbEntity
  8
一般
  6
Continuous
 62
     7
100
AcDbText
 10
-4862.288381496114
 20
-1274.954375010543
 30
0.0
 40
36.5066490238037
  1
アルミ角パイプ
 41
0.8299999999999998
100
AcDbText
  0
TEXT
  5
37A02
330
18
100
AcDbEntity
  8
一般
  6
Continuous
 62
     7
100
AcDbText
 10
-4862.134571756572
 20
-1321.403451573713
 30
0.0
 40
36.5066490238037
  1
100×100
 41
0.8299999999999998
100
AcDbText
  0
TEXT
  5
37A03
330
18
100
AcDbEntity
  8
一般
  6
Continuous
 62
     7
100
AcDbText
 10
-4862.288381496114
 20
-1372.424155550815
 30
0.0
 40
36.5066490238037
  1
アルマイトブロンズ仕上
 41
0.8299999999999998
100
AcDbText
  0
ENDSEC
  0
SECTION
  2
OBJECTS
  0
DICTIONARY
  5
C
330
0
100
AcDbDictionary
281
     1
  3
ACAD_CIP_PREVIOUS_PRODUCT_INFO
350
8DA9
  3
ACAD_COLOR
350
8D87
  3
ACAD_DETAILVIEWSTYLE
350
8DA0
  3
ACAD_DGNDEFINITIONS
350
3623A
  3
ACAD_DWFDEFINITIONS
350
36239
  3
ACAD_GROUP
350
363C1
  3
ACAD_LAYOUT
350
363C2
  3
ACAD_MATERIAL
350
363C6
  3
ACAD_MLEADERSTYLE
350
8D9C
  3
ACAD_MLINESTYLE
350
363C4
  3
ACAD_PDFDEFINITIONS
350
36238
  3
ACAD_PLOTSETTINGS
350
363C3
  3
ACAD_PLOTSTYLENAME
350
5C
  3
ACAD_SCALELIST
350
8D8A
  3
ACAD_SECTIONVIEWSTYLE
350
8D9E
  3
ACAD_TABLESTYLE
350
8D88
  3
ACAD_VISUALSTYLE
350
8D6E
  3
ACDB_RECOMPOSE_DATA
350
37A14
  3
AcDbVariableDictionary
350
C6
  3
AEC_PROPERTY_SET_DEFS
350
1E26E
  3
gmRefExt
350
362A2
  3
HCJX_INFO
350
36347
  0
DICTIONARY
  5
A3D
330
2
100
AcDbDictionary
280
     1
281
     1
  3
ACAD_LAYERSTATES
360
EF5
  3
AMLAYER_GROUPCOLORS
360
A045
  0
DICTIONARY
  5
8DFA
330
E
100
AcDbDictionary
280
     1
281
     1
  3
ADSK_XREC_LAYER_RECONCILED
360
8DFB
  0
DICTIONARY
  5
36D23
330
36D22
100
AcDbDictionary
280
     1
281
     1
  3
ADSK_XREC_LAYER_RECONCILED
360
36D24
  0
DICTIONARY
  5
36D26
330
36D25
100
AcDbDictionary
280
     1
281
     1
  3
ADSK_XREC_LAYER_RECONCILED
360
36D27
  0
DICTIONARY
  5
36D29
330
36D28
100
AcDbDictionary
280
     1
281
     1
  3
ADSK_XREC_LAYER_RECONCILED
360
36D2A
  0
DICTIONARY
  5
36D2F
330
36D2E
100
AcDbDictionary
280
     1
281
     1
  3
ADSK_XREC_LAYER_RECONCILED
360
36D30
  0
DICTIONARY
  5
36EB5
330
36EB4
100
AcDbDictionary
280
     1
281
     1
  3
ADSK_XREC_LAYER_RECONCILED
360
36EB6
  0
DICTIONARY
  5
36EB8
330
36EB7
100
AcDbDictionary
280
     1
281
     1
  3
ADSK_XREC_LAYER_RECONCILED
360
36EB9
  0
DICTIONARY
  5
108
330
18
100
AcDbDictionary
280
     1
281
     1
  3
ACAD_SORTENTS
360
8EAC
  0
XRECORD
  5
8DA9
102
{ACAD_REACTORS
330
C
102
}
330
C
100
AcDbXrecord
280
     1
300
AMECH_PP
300
2013
300
AMECH_PP_F_S
  0
DICTIONARY
  5
8D87
102
{ACAD_REACTORS
330
C
102
}
330
C
100
AcDbDictionary
281
     1
  0
DICTIONARY
  5
8DA0
102
{ACAD_REACTORS
330
C
102
}
330
C
100
AcDbDictionary
281
     1
  3
JIS Z 8316 _ 1999(1)
350
363DC
  3
JIS Z 8316 _ 1999(2)
350
3709F
  3
JIS Z 8316 _ 1999(3)
350
370C3
  3
JIS Z 8316 _ 1999(4)
350
373A3
  3
JIS Z 8316 _ 1999(5)
350
37737
  3
JIS Z 8316 _ 1999(6)
350
37756
  3
JIS Z 8316 _ 1999(7)
350
37959
  3
Metric50
350
8DA1
  0
DICTIONARY
  5
3623A
102
{ACAD_REACTORS
330
C
102
}
330
C
100
AcDbDictionary
281
     1
  0
DICTIONARY
  5
36239
102
{ACAD_REACTORS
330
C
102
}
330
C
100
AcDbDictionary
281
     1
  0
DICTIONARY
  5
363C1
102
{ACAD_REACTORS
330
C
102
}
330
C
100
AcDbDictionary
281
     1
  0
DICTIONARY
  5
363C2
102
{ACAD_REACTORS
330
C
102
}
330
C
100
AcDbDictionary
281
     1
  3
Model
350
363CA
  3
レイアウト 1
350
363CB
  0
DICTIONARY
  5
363C6
102
{ACAD_REACTORS
330
C
102
}
330
C
100
AcDbDictionary
281
     1
  3
ByBlock
350
363C8
  3
ByLayer
350
363C7
  3
Global
350
363C9
  0
DICTIONARY
  5
8D9C
102
{ACAD_REACTORS
330
C
102
}
330
C
100
AcDbDictionary
281
     1
  3
Standard
350
8D9D
  0
DICTIONARY
  5
363C4
102
{ACAD_REACTORS
330
C
102
}
330
C
100
AcDbDictionary
281
     1
  3
Standard
350
363C5
  0
DICTIONARY
  5
36238
102
{ACAD_REACTORS
330
C
102
}
330
C
100
AcDbDictionary
281
     1
  0
DICTIONARY
  5
363C3
102
{ACAD_REACTORS
330
C
102
}
330
C
100
AcDbDictionary
281
     1
  0
ACDBDICTIONARYWDFLT
  5
5C
102
{ACAD_REACTORS
330
C
102
}
330
C
100
AcDbDictionary
281
     1
  3
ByColor
350
36FFB
  3
Normal
350
5D
100
AcDbDictionaryWithDefault
340
5D
  0
DICTIONARY
  5
8D8A
102
{ACAD_REACTORS
330
C
102
}
330
C
100
AcDbDictionary
281
     1
  3
*A1
350
9D10
  3
A0
350
8D8B
  3
A1
350
8D8C
  3
A2
350
8D8D
  3
A3
350
8D8E
  3
A4
350
8D8F
  3
A5
350
8D90
  3
A6
350
8D91
  3
A7
350
8D92
  3
A8
350
8D93
  3
A9
350
8D94
  3
B0
350
8D95
  3
B1
350
8D96
  3
B2
350
8D97
  3
B3
350
8D98
  3
B4
350
8D99
  3
B5
350
8D9A
  3
B6
350
8D9B
  0
DICTIONARY
  5
8D9E
102
{ACAD_REACTORS
330
C
102
}
330
C
100
AcDbDictionary
281
     1
  3
JIS  B 0001 _ 2000(1)
350
363E8
  3
JIS  B 0001 _ 2000(2)
350
37096
  3
JIS  B 0001 _ 2000(3)
350
370B9
  3
JIS  B 0001 _ 2000(4)
350
37398
  3
JIS  B 0001 _ 2000(5)
350
3772B
  3
JIS  B 0001 _ 2000(6)
350
37749
  3
JIS  B 0001 _ 2000(7)
350
3794B
  3
Metric50
350
8D9F
  0
DICTIONARY
  5
8D88
102
{ACAD_REACTORS
330
C
102
}
330
C
100
AcDbDictionary
281
     1
  3
Standard
350
8D89
  0
DICTIONARY
  5
8D6E
102
{ACAD_REACTORS
330
C
102
}
330
C
100
AcDbDictionary
281
     1
  3
2dWireframe
350
8D74
  3
Basic
350
8D73
  3
Brighten
350
8D7A
  3
ColorChange
350
8D7E
  3
Conceptual
350
8D77
  3
Dim
350
8D79
  3
EdgeColorOff
350
8D86
  3
Facepattern
350
8D7D
  3
Flat
350
8D6F
  3
FlatWithEdges
350
8D70
  3
Gouraud
350
8D71
  3
GouraudWithEdges
350
8D72
  3
Hidden
350
8D76
  3
JitterOff
350
8D84
  3
Linepattern
350
8D7C
  3
OverhangOff
350
8D85
  3
Realistic
350
8D78
  3
Shaded
350
8D83
  3
Shaded with edges
350
8D82
  3
Shades of Gray
350
8D7F
  3
Sketchy
350
8D80
  3
Thicken
350
8D7B
  3
Wireframe
350
8D75
  3
X-Ray
350
8D81
  0
XRECORD
  5
37A14
102
{ACAD_REACTORS
330
C
102
}
330
C
100
AcDbXrecord
280
     1
 90
        1
330
8D89
  0
DICTIONARY
  5
C6
102
{ACAD_REACTORS
330
C
102
}
330
C
100
AcDbDictionary
281
     1
  3
CANNOSCALE
350
36437
  3
CMLEADERSTYLE
350
8E7A
  3
CTABLESTYLE
350
8E79
  3
CVIEWDETAILSTYLE
350
8E7B
  3
CVIEWSECTIONSTYLE
350
8E7C
  3
DIMASSOC
350
864
  3
HIDETEXT
350
3637B
  3
INDEXCTL
350
C7
  3
LAYEREVAL
350
9BB7
  3
LAYERNOTIFY
350
9BB8
  3
LIGHTINGUNITS
350
9BB6
  3
MSLTSCALE
350
9BB5
  3
SORTENTS
350
8E7E
  0
DICTIONARY
  5
1E26E
102
{ACAD_REACTORS
330
C
102
}
330
C
100
AcDbDictionary
281
     1
  0
XRECORD
  5
362A2
102
{ACAD_REACTORS
330
C
102
}
330
C
100
AcDbXrecord
280
     1
  0
DICTIONARY
  5
36347
102
{ACAD_REACTORS
330
C
102
}
330
C
100
AcDbDictionary
281
     1
  3
HCJX_VERSION
350
36348
  3
Release
350
36349
  3
TimeStamp
350
3634A
  0
DICTIONARY
  5
EF5
102
{ACAD_REACTORS
330
A3D
102
}
330
A3D
100
AcDbDictionary
281
     1
  0
DICTIONARY
  5
A045
102
{ACAD_REACTORS
330
A3D
102
}
330
A3D
100
AcDbDictionary
280
     1
281
     1
  0
XRECORD
  5
8DFB
102
{ACAD_REACTORS
330
8DFA
102
}
330
8DFA
100
AcDbXrecord
280
     1
290
     1
  0
XRECORD
  5
36D24
102
{ACAD_REACTORS
330
36D23
102
}
330
36D23
100
AcDbXrecord
280
     1
290
     1
  0
XRECORD
  5
36D27
102
{ACAD_REACTORS
330
36D26
102
}
330
36D26
100
AcDbXrecord
280
     1
290
     1
  0
XRECORD
  5
36D2A
102
{ACAD_REACTORS
330
36D29
102
}
330
36D29
100
AcDbXrecord
280
     1
290
     1
  0
XRECORD
  5
36D30
102
{ACAD_REACTORS
330
36D2F
102
}
330
36D2F
100
AcDbXrecord
280
     1
290
     1
  0
XRECORD
  5
36EB6
102
{ACAD_REACTORS
330
36EB5
102
}
330
36EB5
100
AcDbXrecord
280
     1
290
     1
  0
XRECORD
  5
36EB9
102
{ACAD_REACTORS
330
36EB8
102
}
330
36EB8
100
AcDbXrecord
280
     1
290
     1
  0
SORTENTSTABLE
  5
8EAC
102
{ACAD_REACTORS
330
108
102
}
330
108
100
AcDbSortentsTable
330
18
331
0
  5
36F33
331
9B13
  5
36DC9
331
9B16
  5
36DCA
331
9B17
  5
36E19
331
9B18
  5
36EAC
331
36134
  5
36F29
331
36135
  5
36F2A
331
0
  5
3708C
331
0
  5
3708D
331
0
  5
3708E
331
0
  5
3708F
331
36BB7
  5
370CC
331
36BB8
  5
370D1
331
36BB9
  5
370D2
331
0
  5
370D3
331
0
  5
370DA
331
36BBF
  5
370DB
331
36BC0
  5
370DC
331
0
  5
370E0
331
0
  5
370FC
331
0
  5
370FD
331
36BC4
  5
370FE
331
36BC5
  5
37100
331
36E7F
  5
37102
331
36E80
  5
37103
331
36E91
  5
37104
331
0
  5
37603
331
0
  5
37604
331
0
  5
37635
331
0
  5
37637
331
37672
  5
37769
  0
ACDBDETAILVIEWSTYLE
  5
363DC
102
{ACAD_REACTORS
330
8DA0
102
}
102
{ACAD_XDICTIONARY
360
363DD
102
}
330
8DA0
100
AcDbModelDocViewStyle
 70
     0
  3
Imperial24
290
     0
100
AcDbDetailViewStyle
 70
     0
 71
     0
 90
        3
 71
     1
340
F
 62
     7
 40
4.5
340
3624A
 62
     3
 40
4.5
300

 40
0.36
280
     0
 71
     2
340
14
 90
       25
 62
     3
 71
     3
340
F
 62
     7
 40
4.5
 90
        0
 40
15.0
 90
        1
300
<\AcVar ViewDetailId> (<\AcVar ViewScale \f "n">)
 71
     4
340
14
 90
       25
 62
     3
340
14
 90
       25
 62
     3
280
     0
  0
ACDBDETAILVIEWSTYLE
  5
3709F
102
{ACAD_REACTORS
330
8DA0
102
}
102
{ACAD_XDICTIONARY
360
370A0
102
}
330
8DA0
100
AcDbModelDocViewStyle
 70
     0
  3
Imperial24
290
     0
100
AcDbDetailViewStyle
 70
     0
 71
     0
 90
        3
 71
     1
340
F
 62
     7
 40
4.5
340
3624A
 62
     3
 40
4.5
300

 40
0.36
280
     0
 71
     2
340
14
 90
       25
 62
   256
 71
     3
340
F
 62
     7
 40
4.5
 90
        0
 40
0.0
 90
        1
300
<\AcVar ViewDetailId> (<\AcVar ViewScale \f "n">)
 71
     4
340
14
 90
       25
 62
   256
340
14
 90
       25
 62
   256
280
     0
  0
ACDBDETAILVIEWSTYLE
  5
370C3
102
{ACAD_REACTORS
330
8DA0
102
}
102
{ACAD_XDICTIONARY
360
370C4
102
}
330
8DA0
100
AcDbModelDocViewStyle
 70
     0
  3
Imperial24
290
     0
100
AcDbDetailViewStyle
 70
     0
 71
     0
 90
        3
 71
     1
340
F
 62
     7
 40
4.5
340
3624A
 62
     3
 40
4.5
300

 40
0.36
280
     0
 71
     2
340
14
 90
       25
 62
   256
 71
     3
340
F
 62
     7
 40
4.5
 90
        0
 40
0.0
 90
        1
300
<\AcVar ViewDetailId> (<\AcVar ViewScale \f "n">)
 71
     4
340
14
 90
       25
 62
   256
340
14
 90
       25
 62
   256
280
     0
  0
ACDBDETAILVIEWSTYLE
  5
373A3
102
{ACAD_REACTORS
330
8DA0
102
}
102
{ACAD_XDICTIONARY
360
373A4
102
}
330
8DA0
100
AcDbModelDocViewStyle
 70
     0
  3
Imperial24
290
     0
100
AcDbDetailViewStyle
 70
     0
 71
     0
 90
        3
 71
     1
340
F
 62
     7
 40
4.5
340
3624A
 62
     3
 40
4.5
300

 40
0.36
280
     0
 71
     2
340
14
 90
       25
 62
   256
 71
     3
340
F
 62
     7
 40
4.5
 90
        0
 40
0.0
 90
        1
300
<\AcVar ViewDetailId> (<\AcVar ViewScale \f "n">)
 71
     4
340
14
 90
       25
 62
   256
340
14
 90
       25
 62
   256
280
     0
  0
ACDBDETAILVIEWSTYLE
  5
37737
102
{ACAD_REACTORS
330
8DA0
102
}
102
{ACAD_XDICTIONARY
360
37738
102
}
330
8DA0
100
AcDbModelDocViewStyle
 70
     0
  3
Imperial24
290
     0
100
AcDbDetailViewStyle
 70
     0
 71
     0
 90
        3
 71
     1
340
F
 62
     7
 40
4.5
340
3624A
 62
     3
 40
4.5
300

 40
0.36
280
     0
 71
     2
340
14
 90
       25
 62
   256
 71
     3
340
F
 62
     7
 40
4.5
 90
        0
 40
0.0
 90
        1
300
<\AcVar ViewDetailId> (<\AcVar ViewScale \f "n">)
 71
     4
340
14
 90
       25
 62
   256
340
14
 90
       25
 62
   256
280
     0
  0
ACDBDETAILVIEWSTYLE
  5
37756
102
{ACAD_REACTORS
330
8DA0
102
}
102
{ACAD_XDICTIONARY
360
37757
102
}
330
8DA0
100
AcDbModelDocViewStyle
 70
     0
  3
Imperial24
290
     0
100
AcDbDetailViewStyle
 70
     0
 71
     0
 90
        3
 71
     1
340
F
 62
     7
 40
4.5
340
3624A
 62
     3
 40
4.5
300

 40
0.36
280
     0
 71
     2
340
14
 90
       25
 62
   256
 71
     3
340
F
 62
     7
 40
4.5
 90
        0
 40
0.0
 90
        1
300
<\AcVar ViewDetailId> (<\AcVar ViewScale \f "n">)
 71
     4
340
14
 90
       25
 62
   256
340
14
 90
       25
 62
   256
280
     0
  0
ACDBDETAILVIEWSTYLE
  5
37959
102
{ACAD_REACTORS
330
8DA0
102
}
102
{ACAD_XDICTIONARY
360
3795A
102
}
330
8DA0
100
AcDbModelDocViewStyle
 70
     0
  3
Imperial24
290
     0
100
AcDbDetailViewStyle
 70
     0
 71
     0
 90
        3
 71
     1
340
F
 62
     7
 40
4.5
340
3624A
 62
     3
 40
4.5
300

 40
0.36
280
     0
 71
     2
340
14
 90
       25
 62
   256
 71
     3
340
F
 62
     7
 40
4.5
 90
        0
 40
0.0
 90
        1
300
<\AcVar ViewDetailId> (<\AcVar ViewScale \f "n">)
 71
     4
340
14
 90
       25
 62
   256
340
14
 90
       25
 62
   256
280
     0
  0
ACDBDETAILVIEWSTYLE
  5
8DA1
102
{ACAD_REACTORS
330
8DA0
102
}
102
{ACAD_XDICTIONARY
360
36385
102
}
330
8DA0
100
AcDbModelDocViewStyle
 70
     0
  3
Metric50
290
     0
100
AcDbDetailViewStyle
 70
     0
 71
     0
 90
        3
 71
     1
340
F
 62
   256
 40
5.0
340
0
 62
   256
 40
5.0
300

 40
0.0
280
     1
 71
     2
340
14
 90
       25
 62
   256
 71
     3
340
F
 62
   256
 40
5.0
 90
        0
 40
15.0
 90
        1
300
%<\AcVar ViewDetailId>% (%<\AcVar ViewScale \f "%sn">%)
 71
     4
340
14
 90
       25
 62
   256
340
14
 90
       25
 62
   256
280
     0
  0
LAYOUT
  5
363CA
102
{ACAD_REACTORS
330
363C2
102
}
330
363C2
100
AcDbPlotSettings
  1

  2
none_device
  4
ISO_A4_(210.00_x_297.00_MM)
  6

 40
7.5
 41
20.0
 42
7.5
 43
20.0
 44
210.0
 45
297.0
 46
0.0
 47
0.0
 48
0.0
 49
0.0
140
0.0
141
0.0
142
1.0
143
16.81358699428997
 70
  1712
 72
     1
 73
     1
 74
     0
  7
docu_monochrome.ctb
 75
     0
 76
     0
 77
     2
 78
   300
147
0.0594757085647226
148
0.0
149
0.0
100
AcDbLayout
  1
Model
 70
     1
 71
     0
 10
0.0
 20
0.0
 11
1175.0
 21
882.4999843593743
 12
0.0
 22
0.0
 32
0.0
 14
-8772.923641366811
 24
-4805.714219485432
 34
0.0
 15
-2457.92365396445
 25
-335.7142238768765
 35
0.0
146
0.0
 13
0.0
 23
0.0
 33
0.0
 16
1.0
 26
0.0
 36
0.0
 17
0.0
 27
1.0
 37
0.0
 76
     0
330
18
331
8D53
  0
LAYOUT
  5
363CB
102
{ACAD_REACTORS
330
363C2
102
}
330
363C2
100
AcDbPlotSettings
  1

  2
none_device
  4
ISO_A4_(210.00_x_297.00_MM)
  6

 40
7.5
 41
20.0
 42
7.5
 43
20.0
 44
210.0
 45
297.0
 46
0.0
 47
0.0
 48
0.0
 49
0.0
140
0.0
141
0.0
142
1.0
143
1.0
 70
   688
 72
     1
 73
     1
 74
     5
  7
docu_monochrome.ctb
 75
    16
 76
     0
 77
     2
 78
   300
147
1.0
148
0.0
149
0.0
100
AcDbLayout
  1
レイアウト 1
 70
     1
 71
     1
 10
0.0
 20
0.0
 11
420.0
 21
297.0
 12
0.0
 22
0.0
 32
0.0
 14
1.000000000000000E+20
 24
1.000000000000000E+20
 34
1.000000000000000E+20
 15
-1.000000000000000E+20
 25
-1.000000000000000E+20
 35
-1.000000000000000E+20
146
0.0
 13
0.0
 23
0.0
 33
0.0
 16
1.0
 26
0.0
 36
0.0
 17
0.0
 27
1.0
 37
0.0
 76
     0
330
15
  0
MATERIAL
  5
363C8
102
{ACAD_REACTORS
330
363C6
102
}
330
363C6
100
AcDbMaterial
  1
ByBlock
 72
     1
 94
      127
  0
MATERIAL
  5
363C7
102
{ACAD_REACTORS
330
363C6
102
}
330
363C6
100
AcDbMaterial
  1
ByLayer
 72
     1
 94
      127
  0
MATERIAL
  5
363C9
102
{ACAD_REACTORS
330
363C6
102
}
330
363C6
100
AcDbMaterial
  1
Global
 72
     1
 94
      127
  0
MLEADERSTYLE
  5
8D9D
102
{ACAD_REACTORS
330
8D9C
102
}
330
8D9C
100
AcDbMLeaderStyle
179
     2
170
     2
171
     1
172
     0
 90
        2
 40
0.0
 41
0.0
173
     1
 91
-1056964608
340
12
 92
       -2
290
     1
 42
2.0
291
     1
 43
0.36
  3
Standard
341
0
 44
4.0
300

342
F
174
     1
178
     6
175
     1
176
     0
 93
-1056964608
 45
4.0
292
     0
297
     0
 46
4.0
343
0
 94
-1056964608
 47
1.0
 49
1.0
140
1.0
293
     1
141
0.0
294
     1
177
     0
142
1.0
295
     0
296
     0
143
0.125
271
     0
272
     9
273
     9
298
     1
1001
ACAD_MLEADERVER
1070
     2
  0
MLINESTYLE
  5
363C5
102
{ACAD_REACTORS
330
363C4
102
}
330
363C4
100
AcDbMlineStyle
  2
Standard
 70
     0
  3

 62
   256
 51
90.0
 52
90.0
 71
     2
 49
0.5
 62
   256
  6
BYLAYER
 49
-0.5
 62
   256
  6
BYLAYER
  0
ACDBPLACEHOLDER
  5
36FFB
102
{ACAD_REACTORS
330
5C
102
}
330
5C
  0
ACDBPLACEHOLDER
  5
5D
102
{ACAD_REACTORS
330
5C
102
}
330
5C
  0
SCALE
  5
9D10
102
{ACAD_REACTORS
330
8D8A
102
}
330
8D8A
100
AcDbScale
 70
     0
300
1:25
140
1.0
141
25.0
290
     0
  0
SCALE
  5
8D8B
102
{ACAD_REACTORS
330
8D8A
102
}
330
8D8A
100
AcDbScale
 70
     0
300
1:1
140
1.0
141
1.0
290
     1
  0
SCALE
  5
8D8C
102
{ACAD_REACTORS
330
8D8A
102
}
330
8D8A
100
AcDbScale
 70
     0
300
1:2
140
1.0
141
2.0
290
     0
  0
SCALE
  5
8D8D
102
{ACAD_REACTORS
330
8D8A
102
}
330
8D8A
100
AcDbScale
 70
     0
300
1:4
140
1.0
141
4.0
290
     0
  0
SCALE
  5
8D8E
102
{ACAD_REACTORS
330
8D8A
102
}
330
8D8A
100
AcDbScale
 70
     0
300
1:5
140
1.0
141
5.0
290
     0
  0
SCALE
  5
8D8F
102
{ACAD_REACTORS
330
8D8A
102
}
330
8D8A
100
AcDbScale
 70
     0
300
1:8
140
1.0
141
8.0
290
     0
  0
SCALE
  5
8D90
102
{ACAD_REACTORS
330
8D8A
102
}
330
8D8A
100
AcDbScale
 70
     0
300
1:10
140
1.0
141
10.0
290
     0
  0
SCALE
  5
8D91
102
{ACAD_REACTORS
330
8D8A
102
}
330
8D8A
100
AcDbScale
 70
     0
300
1:16
140
1.0
141
16.0
290
     0
  0
SCALE
  5
8D92
102
{ACAD_REACTORS
330
8D8A
102
}
330
8D8A
100
AcDbScale
 70
     0
300
1:20
140
1.0
141
20.0
290
     0
  0
SCALE
  5
8D93
102
{ACAD_REACTORS
330
8D8A
102
}
330
8D8A
100
AcDbScale
 70
     0
300
1:30
140
1.0
141
30.0
290
     0
  0
SCALE
  5
8D94
102
{ACAD_REACTORS
330
8D8A
102
}
330
8D8A
100
AcDbScale
 70
     0
300
1:40
140
1.0
141
40.0
290
     0
  0
SCALE
  5
8D95
102
{ACAD_REACTORS
330
8D8A
102
}
330
8D8A
100
AcDbScale
 70
     0
300
1:50
140
1.0
141
50.0
290
     0
  0
SCALE
  5
8D96
102
{ACAD_REACTORS
330
8D8A
102
}
330
8D8A
100
AcDbScale
 70
     0
300
1:100
140
1.0
141
100.0
290
     0
  0
SCALE
  5
8D97
102
{ACAD_REACTORS
330
8D8A
102
}
330
8D8A
100
AcDbScale
 70
     0
300
2:1
140
2.0
141
1.0
290
     0
  0
SCALE
  5
8D98
102
{ACAD_REACTORS
330
8D8A
102
}
330
8D8A
100
AcDbScale
 70
     0
300
4:1
140
4.0
141
1.0
290
     0
  0
SCALE
  5
8D99
102
{ACAD_REACTORS
330
8D8A
102
}
330
8D8A
100
AcDbScale
 70
     0
300
8:1
140
8.0
141
1.0
290
     0
  0
SCALE
  5
8D9A
102
{ACAD_REACTORS
330
8D8A
102
}
330
8D8A
100
AcDbScale
 70
     0
300
10:1
140
10.0
141
1.0
290
     0
  0
SCALE
  5
8D9B
102
{ACAD_REACTORS
330
8D8A
102
}
330
8D8A
100
AcDbScale
 70
     0
300
100:1
140
100.0
141
1.0
290
     0
  0
ACDBSECTIONVIEWSTYLE
  5
363E8
102
{ACAD_REACTORS
330
8D9E
102
}
102
{ACAD_XDICTIONARY
360
363E9
102
}
330
8D9E
100
AcDbModelDocViewStyle
 70
     0
  3
Imperial24
290
     0
100
AcDbSectionViewStyle
 70
     0
 71
     0
 90
      127
 71
     1
340
F
 62
     7
 40
4.5
340
3624A
340
3624A
 62
     7
 40
4.5
300
I,O,Q,S,X,Z
 40
10.0
 90
        4
 40
2.25
 90
        0
 71
     2
340
9BA8
 90
       50
 62
     1
340
9BA8
 90
       50
 62
     7
 40
10.0
 40
5.0
 40
10.0
 71
     3
340
F
 62
     7
 40
4.5
 90
        0
 40
3.75
 90
        1
300
%<\AcVar ViewSectionStartId>%-%<\AcVar ViewSectionEndId>%
 71
     4
 62
   256
 62
   257
300
ANSI31
 40
1.0
 90
        0
290
     0
290
     0
 90
        6
 40
0.0
 40
1.5707963268
 40
0.2617993878
 40
1.308996939
 40
6.0213859194
 40
1.8325957146
  0
ACDBSECTIONVIEWSTYLE
  5
37096
102
{ACAD_REACTORS
330
8D9E
102
}
102
{ACAD_XDICTIONARY
360
37097
102
}
330
8D9E
100
AcDbModelDocViewStyle
 70
     0
  3
Imperial24
290
     0
100
AcDbSectionViewStyle
 70
     0
 71
     0
 90
      127
 71
     1
340
F
 62
     7
 40
4.5
340
3624A
340
3624A
 62
     7
 40
4.5
300
I,O,Q,S,X,Z
 40
10.0
 90
        4
 40
2.25
 90
        0
 71
     2
340
9BA8
 90
       -1
 62
     1
340
9BA8
 90
       50
 62
     7
 40
10.0
 40
5.0
 40
10.0
 71
     3
340
F
 62
     7
 40
4.5
 90
        0
 40
3.75
 90
        1
300
%<\AcVar ViewSectionStartId>%-%<\AcVar ViewSectionEndId>%
 71
     4
 62
   256
 62
   257
300
ANSI31
 40
1.0
 90
        0
290
     0
290
     0
 90
        6
 40
0.0
 40
1.570796326794897
 40
0.2617993877991494
 40
1.308996938995747
 40
-0.2617993877991494
 40
1.832595714594046
  0
ACDBSECTIONVIEWSTYLE
  5
370B9
102
{ACAD_REACTORS
330
8D9E
102
}
102
{ACAD_XDICTIONARY
360
370BA
102
}
330
8D9E
100
AcDbModelDocViewStyle
 70
     0
  3
Imperial24
290
     0
100
AcDbSectionViewStyle
 70
     0
 71
     0
 90
      127
 71
     1
340
F
 62
     7
 40
4.5
340
3624A
340
3624A
 62
     7
 40
4.5
300
I,O,Q,S,X,Z
 40
10.0
 90
        4
 40
2.25
 90
        0
 71
     2
340
9BA8
 90
       -1
 62
     1
340
9BA8
 90
       50
 62
     7
 40
10.0
 40
5.0
 40
10.0
 71
     3
340
F
 62
     7
 40
4.5
 90
        0
 40
3.75
 90
        1
300
%<\AcVar ViewSectionStartId>%-%<\AcVar ViewSectionEndId>%
 71
     4
 62
   256
 62
   257
300
ANSI31
 40
1.0
 90
        0
290
     0
290
     0
 90
        6
 40
0.0
 40
1.570796326794897
 40
0.2617993877991494
 40
1.308996938995747
 40
-0.2617993877991494
 40
1.832595714594046
  0
ACDBSECTIONVIEWSTYLE
  5
37398
102
{ACAD_REACTORS
330
8D9E
102
}
102
{ACAD_XDICTIONARY
360
37399
102
}
330
8D9E
100
AcDbModelDocViewStyle
 70
     0
  3
Imperial24
290
     0
100
AcDbSectionViewStyle
 70
     0
 71
     0
 90
      127
 71
     1
340
F
 62
     7
 40
4.5
340
3624A
340
3624A
 62
     7
 40
4.5
300
I,O,Q,S,X,Z
 40
10.0
 90
        4
 40
2.25
 90
        0
 71
     2
340
9BA8
 90
       -1
 62
     1
340
9BA8
 90
       50
 62
     7
 40
10.0
 40
5.0
 40
10.0
 71
     3
340
F
 62
     7
 40
4.5
 90
        0
 40
3.75
 90
        1
300
%<\AcVar ViewSectionStartId>%-%<\AcVar ViewSectionEndId>%
 71
     4
 62
   256
 62
   257
300
ANSI31
 40
1.0
 90
        0
290
     0
290
     0
 90
        6
 40
0.0
 40
1.570796326794897
 40
0.2617993877991494
 40
1.308996938995747
 40
-0.2617993877991494
 40
1.832595714594046
  0
ACDBSECTIONVIEWSTYLE
  5
3772B
102
{ACAD_REACTORS
330
8D9E
102
}
102
{ACAD_XDICTIONARY
360
3772C
102
}
330
8D9E
100
AcDbModelDocViewStyle
 70
     0
  3
Imperial24
290
     0
100
AcDbSectionViewStyle
 70
     0
 71
     0
 90
      127
 71
     1
340
F
 62
     7
 40
4.5
340
3624A
340
3624A
 62
     7
 40
4.5
300
I,O,Q,S,X,Z
 40
10.0
 90
        4
 40
2.25
 90
        0
 71
     2
340
9BA8
 90
       -1
 62
     1
340
9BA8
 90
       50
 62
     7
 40
10.0
 40
5.0
 40
10.0
 71
     3
340
F
 62
     7
 40
4.5
 90
        0
 40
3.75
 90
        1
300
%<\AcVar ViewSectionStartId>%-%<\AcVar ViewSectionEndId>%
 71
     4
 62
   256
 62
   257
300
ANSI31
 40
1.0
 90
        0
290
     0
290
     0
 90
        6
 40
0.0
 40
1.570796326794897
 40
0.2617993877991494
 40
1.308996938995747
 40
-0.2617993877991494
 40
1.832595714594046
  0
ACDBSECTIONVIEWSTYLE
  5
37749
102
{ACAD_REACTORS
330
8D9E
102
}
102
{ACAD_XDICTIONARY
360
3774A
102
}
330
8D9E
100
AcDbModelDocViewStyle
 70
     0
  3
Imperial24
290
     0
100
AcDbSectionViewStyle
 70
     0
 71
     0
 90
      127
 71
     1
340
F
 62
     7
 40
4.5
340
3624A
340
3624A
 62
     7
 40
4.5
300
I,O,Q,S,X,Z
 40
10.0
 90
        4
 40
2.25
 90
        0
 71
     2
340
9BA8
 90
       -1
 62
     1
340
9BA8
 90
       50
 62
     7
 40
10.0
 40
5.0
 40
10.0
 71
     3
340
F
 62
     7
 40
4.5
 90
        0
 40
3.75
 90
        1
300
%<\AcVar ViewSectionStartId>%-%<\AcVar ViewSectionEndId>%
 71
     4
 62
   256
 62
   257
300
ANSI31
 40
1.0
 90
        0
290
     0
290
     0
 90
        6
 40
0.0
 40
1.570796326794897
 40
0.2617993877991494
 40
1.308996938995747
 40
-0.2617993877991494
 40
1.832595714594046
  0
ACDBSECTIONVIEWSTYLE
  5
3794B
102
{ACAD_REACTORS
330
8D9E
102
}
102
{ACAD_XDICTIONARY
360
3794C
102
}
330
8D9E
100
AcDbModelDocViewStyle
 70
     0
  3
Imperial24
290
     0
100
AcDbSectionViewStyle
 70
     0
 71
     0
 90
      127
 71
     1
340
F
 62
     7
 40
4.5
340
3624A
340
3624A
 62
     7
 40
4.5
300
I,O,Q,S,X,Z
 40
10.0
 90
        4
 40
2.25
 90
        0
 71
     2
340
9BA8
 90
       -1
 62
     1
340
9BA8
 90
       50
 62
     7
 40
10.0
 40
5.0
 40
10.0
 71
     3
340
F
 62
     7
 40
4.5
 90
        0
 40
3.75
 90
        1
300
%<\AcVar ViewSectionStartId>%-%<\AcVar ViewSectionEndId>%
 71
     4
 62
   256
 62
   257
300
ANSI31
 40
1.0
 90
        0
290
     0
290
     0
 90
        6
 40
0.0
 40
1.570796326794897
 40
0.2617993877991494
 40
1.308996938995747
 40
-0.2617993877991494
 40
1.832595714594046
  0
ACDBSECTIONVIEWSTYLE
  5
8D9F
102
{ACAD_REACTORS
330
8D9E
102
}
102
{ACAD_XDICTIONARY
360
3638F
102
}
330
8D9E
100
AcDbModelDocViewStyle
 70
     0
  3
Metric50
290
     0
100
AcDbSectionViewStyle
 70
     0
 71
     0
 90
      102
 71
     1
340
F
 62
   256
 40
5.0
340
0
340
0
 62
   256
 40
5.0
300
I, O, Q, S, X, Z
 40
10.0
 90
        0
 40
2.5
 90
        0
 71
     2
340
14
 90
       25
 62
   256
340
14
 90
       50
 62
   256
 40
5.0
 40
2.5
 40
5.0
 71
     3
340
F
 62
   256
 40
5.0
 90
        0
 40
15.0
 90
        1
300
%<\AcVar ViewSectionStartId>%-%<\AcVar ViewSectionEndId>% (%<\AcVar ViewScale \f "%sn">%)
 71
     4
 62
   256
 62
   257
300
ANSI31
 40
1.0
 90
        0
290
     0
290
     0
 90
        6
 40
0.0
 40
1.570796326794896
 40
0.2617993877991494
 40
1.308996938995747
 40
-0.2617993877991494
 40
1.832595714594044
  0
TABLESTYLE
  5
8D89
102
{ACAD_REACTORS
330
8D88
102
}
102
{ACAD_XDICTIONARY
360
37A12
102
}
330
8D88
100
AcDbTableStyle
  3
Standard
 70
     0
 71
     0
 40
1.5
 41
1.5
280
     0
281
     0
  7
STANDARD
140
4.5
170
     2
 62
     0
 63
   257
283
     0
 90
        4
 91
        0
  1

274
    -2
284
     1
 64
     0
275
    -2
285
     1
 65
     0
276
    -2
286
     1
 66
     0
277
    -2
287
     1
 67
     0
278
    -2
288
     1
 68
     0
279
    -2
289
     1
 69
     0
  7
STANDARD
140
6.0
170
     5
 62
     0
 63
   257
283
     0
 90
        4
 91
        0
  1

274
    -2
284
     1
 64
     0
275
    -2
285
     1
 65
     0
276
    -2
286
     1
 66
     0
277
    -2
287
     1
 67
     0
278
    -2
288
     1
 68
     0
279
    -2
289
     1
 69
     0
  7
STANDARD
140
4.5
170
     5
 62
     0
 63
   257
283
     0
 90
        4
 91
        0
  1

274
    -2
284
     1
 64
     0
275
    -2
285
     1
 65
     0
276
    -2
286
     1
 66
     0
277
    -2
287
     1
 67
     0
278
    -2
288
     1
 68
     0
279
    -2
289
     1
 69
     0
  0
VISUALSTYLE
  5
8D74
102
{ACAD_REACTORS
330
8D6E
102
}
330
8D6E
100
AcDbVisualStyle
  2

 70
     4
177
     3
291
     0
 70
    58
 90
        0
176
     1
 90
        2
176
     1
 90
        0
176
     1
 90
        0
176
     1
 40
0.6
176
     1
 40
30.0
176
     1
 62
     7
176
     1
 90
        1
176
     1
 90
        4
176
     1
 62
     7
176
     1
 62
   257
176
     1
 90
        1
176
     1
 90
        1
176
     1
 40
1.0
176
     1
 90
        0
176
     1
 62
   257
176
     1
 40
1.0
176
     1
 90
        1
176
     1
 90
        6
176
     1
 90
        2
176
     1
 62
     7
176
     1
 90
        5
176
     1
 90
        0
176
     1
 90
        0
176
     1
290
     0
176
     1
 90
        1
176
     1
 40
0.0
176
     1
 90
        0
176
     1
290
     1
176
     1
290
     1
176
     1
290
     0
176
     1
290
     0
176
     1
290
     0
176
     1
290
     0
176
     1
290
     0
176
     1
290
     0
176
     1
290
     0
176
     1
 90
       50
176
     1
 40
0.0
176
     1
 40
1.0
176
     1
 90
        0
176
     1
 62
    18
176
     1
 90
       50
176
     1
 90
        3
176
     1
 62
     5
420
      255
176
     1
290
     0
176
     1
 90
       50
176
     1
 90
       50
176
     1
 90
       50
176
     1
290
     0
176
     1
 90
       50
176
     1
 62
   256
176
     0
 40
1.0
176
     0
 90
        2
176
     1
  1
strokes_ogs.tif
176
     1
290
     0
176
     1
 40
1.0
176
     1
 40
1.0
176
     1
  0
VISUALSTYLE
  5
8D73
102
{ACAD_REACTORS
330
8D6E
102
}
330
8D6E
100
AcDbVisualStyle
  2

 70
     7
177
     3
291
     1
 70
    58
 90
        1
176
     1
 90
        0
176
     1
 90
        1
176
     1
 90
        0
176
     1
 40
0.6
176
     1
 40
30.0
176
     1
 62
     7
176
     1
 90
        0
176
     1
 90
        4
176
     1
 62
     7
176
     1
 62
   257
176
     1
 90
        1
176
     1
 90
        1
176
     1
 40
1.0
176
     1
 90
        8
176
     1
 62
     7
176
     1
 40
1.0
176
     1
 90
        1
176
     1
 90
        6
176
     1
 90
        2
176
     1
 62
     7
176
     1
 90
        5
176
     1
 90
        0
176
     1
 90
        0
176
     1
290
     0
176
     1
 90
        1
176
     1
 40
0.0
176
     1
 90
        0
176
     1
290
     0
176
     1
290
     1
176
     1
290
     1
176
     1
290
     0
176
     1
290
     0
176
     1
290
     0
176
     1
290
     0
176
     1
290
     0
176
     1
290
     0
176
     1
 90
       50
176
     1
 40
0.0
176
     1
 40
1.0
176
     1
 90
        0
176
     1
 62
    18
176
     1
 90
       50
176
     1
 90
        3
176
     1
 62
     5
420
      255
176
     1
290
     0
176
     1
 90
       50
176
     1
 90
       50
176
     1
 90
       50
176
     1
290
     0
176
     1
 90
       50
176
     1
 62
   256
176
     0
 40
1.0
176
     0
 90
        2
176
     1
  1
strokes_ogs.tif
176
     1
290
     0
176
     1
 40
1.0
176
     1
 40
1.0
176
     1
  0
VISUALSTYLE
  5
8D7A
102
{ACAD_REACTORS
330
8D6E
102
}
330
8D6E
100
AcDbVisualStyle
  2

 70
    12
177
     3
291
     1
 70
    58
 90
        2
176
     1
 90
        2
176
     1
 90
        0
176
     1
 90
        0
176
     1
 40
0.6
176
     1
 40
30.0
176
     1
 62
     7
176
     1
 90
        1
176
     1
 90
        4
176
     1
 62
     7
176
     1
 62
   257
176
     1
 90
        1
176
     1
 90
        1
176
     1
 40
1.0
176
     1
 90
        8
176
     1
 62
     7
176
     1
 40
1.0
176
     1
 90
        1
176
     1
 90
        6
176
     1
 90
        2
176
     1
 62
     7
176
     1
 90
        5
176
     1
 90
        0
176
     1
 90
        0
176
     1
290
     0
176
     1
 90
        1
176
     1
 40
50.0
176
     1
 90
        0
176
     1
290
     0
176
     1
290
     1
176
     1
290
     1
176
     1
290
     0
176
     1
290
     0
176
     1
290
     0
176
     1
290
     0
176
     1
290
     0
176
     1
290
     0
176
     1
 90
       50
176
     1
 40
0.0
176
     1
 40
1.0
176
     1
 90
        0
176
     1
 62
    18
176
     1
 90
       50
176
     1
 90
        3
176
     1
 62
     5
420
      255
176
     1
290
     0
176
     1
 90
       50
176
     1
 90
       50
176
     1
 90
       50
176
     1
290
     0
176
     1
 90
       50
176
     1
 62
   256
176
     0
 40
1.0
176
     0
 90
        2
176
     1
  1
strokes_ogs.tif
176
     1
290
     0
176
     1
 40
1.0
176
     1
 40
1.0
176
     1
  0
VISUALSTYLE
  5
8D7E
102
{ACAD_REACTORS
330
8D6E
102
}
330
8D6E
100
AcDbVisualStyle
  2

 70
    16
177
     3
291
     1
 70
    58
 90
        2
176
     1
 90
        2
176
     1
 90
        3
176
     1
 90
        0
176
     1
 40
0.6
176
     1
 40
30.0
176
     1
 62
     8
176
     1
 90
        1
176
     1
 90
        4
176
     1
 62
     7
176
     1
 62
   257
176
     1
 90
        1
176
     1
 90
        1
176
     1
 40
1.0
176
     1
 90
        8
176
     1
 62
     8
176
     1
 40
1.0
176
     1
 90
        1
176
     1
 90
        6
176
     1
 90
        2
176
     1
 62
     7
176
     1
 90
        5
176
     1
 90
        0
176
     1
 90
        0
176
     1
290
     0
176
     1
 90
        1
176
     1
 40
0.0
176
     1
 90
        0
176
     1
290
     0
176
     1
290
     1
176
     1
290
     1
176
     1
290
     0
176
     1
290
     0
176
     1
290
     0
176
     1
290
     0
176
     1
290
     0
176
     1
290
     0
176
     1
 90
       50
176
     1
 40
0.0
176
     1
 40
1.0
176
     1
 90
        0
176
     1
 62
    18
176
     1
 90
       50
176
     1
 90
        3
176
     1
 62
     5
420
      255
176
     1
290
     0
176
     1
 90
       50
176
     1
 90
       50
176
     1
 90
       50
176
     1
290
     0
176
     1
 90
       50
176
     1
 62
   256
176
     0
 40
1.0
176
     0
 90
        2
176
     1
  1
strokes_ogs.tif
176
     1
290
     0
176
     1
 40
1.0
176
     1
 40
1.0
176
     1
  0
VISUALSTYLE
  5
8D77
102
{ACAD_REACTORS
330
8D6E
102
}
330
8D6E
100
AcDbVisualStyle
  2

 70
     9
177
     3
291
     0
 70
    58
 90
        3
176
     1
 90
        2
176
     1
 90
        0
176
     1
 90
        0
176
     1
 40
0.6
176
     1
 40
30.0
176
     1
 62
     7
176
     1
 90
        2
176
     1
 90
        2
176
     1
 62
     7
176
     1
 62
   257
176
     1
 90
        1
176
     1
 90
        1
176
     1
 40
179.0
176
     1
 90
        8
176
     1
 62
     7
176
     1
 40
1.0
176
     1
 90
        1
176
     1
 90
        6
176
     1
 90
        2
176
     1
 62
     7
176
     1
 90
        3
176
     1
 90
        0
176
     1
 90
        0
176
     1
290
     0
176
     1
 90
        1
176
     1
 40
0.0
176
     1
 90
        0
176
     1
290
     0
176
     1
290
     1
176
     1
290
     1
176
     1
290
     0
176
     1
290
     0
176
     1
290
     0
176
     1
290
     0
176
     1
290
     0
176
     1
290
     0
176
     1
 90
       50
176
     1
 40
0.0
176
     1
 40
1.0
176
     1
 90
        0
176
     1
 62
    18
176
     1
 90
       50
176
     1
 90
        3
176
     1
 62
     5
420
      255
176
     1
290
     0
176
     1
 90
       50
176
     1
 90
       50
176
     1
 90
       50
176
     1
290
     0
176
     1
 90
       50
176
     1
 62
   256
176
     0
 40
1.0
176
     0
 90
        2
176
     1
  1
strokes_ogs.tif
176
     1
290
     0
176
     1
 40
1.0
176
     1
 40
1.0
176
     1
  0
VISUALSTYLE
  5
8D79
102
{ACAD_REACTORS
330
8D6E
102
}
330
8D6E
100
AcDbVisualStyle
  2

 70
    11
177
     3
291
     1
 70
    58
 90
        2
176
     1
 90
        2
176
     1
 90
        0
176
     1
 90
        0
176
     1
 40
0.6
176
     1
 40
30.0
176
     1
 62
     7
176
     1
 90
        1
176
     1
 90
        4
176
     1
 62
     7
176
     1
 62
   257
176
     1
 90
        1
176
     1
 90
        1
176
     1
 40
1.0
176
     1
 90
        8
176
     1
 62
     7
176
     1
 40
1.0
176
     1
 90
        1
176
     1
 90
        6
176
     1
 90
        2
176
     1
 62
     7
176
     1
 90
        5
176
     1
 90
        0
176
     1
 90
        0
176
     1
290
     0
176
     1
 90
        1
176
     1
 40
-50.0
176
     1
 90
        0
176
     1
290
     0
176
     1
290
     1
176
     1
290
     1
176
     1
290
     0
176
     1
290
     0
176
     1
290
     0
176
     1
290
     0
176
     1
290
     0
176
     1
290
     0
176
     1
 90
       50
176
     1
 40
0.0
176
     1
 40
1.0
176
     1
 90
        0
176
     1
 62
    18
176
     1
 90
       50
176
     1
 90
        3
176
     1
 62
     5
420
      255
176
     1
290
     0
176
     1
 90
       50
176
     1
 90
       50
176
     1
 90
       50
176
     1
290
     0
176
     1
 90
       50
176
     1
 62
   256
176
     0
 40
1.0
176
     0
 90
        2
176
     1
  1
strokes_ogs.tif
176
     1
290
     0
176
     1
 40
1.0
176
     1
 40
1.0
176
     1
  0
VISUALSTYLE
  5
8D86
102
{ACAD_REACTORS
330
8D6E
102
}
330
8D6E
100
AcDbVisualStyle
  2

 70
    22
177
     3
291
     1
 70
    58
 90
        2
176
     0
 90
        2
176
     0
 90
        0
176
     0
 90
        0
176
     0
 40
0.6
176
     0
 40
30.0
176
     0
 62
     7
176
     0
 90
        1
176
     0
 90
        4
176
     0
 62
     7
176
     0
 62
   257
176
     0
 90
        1
176
     0
 90
        1
176
     0
 40
1.0
176
     0
 90
        8
176
     2
 62
     7
176
     0
 40
1.0
176
     0
 90
        1
176
     0
 90
        6
176
     0
 90
        2
176
     0
 62
     7
176
     0
 90
        5
176
     0
 90
        0
176
     0
 90
        0
176
     0
290
     0
176
     0
 90
        1
176
     0
 40
0.0
176
     0
 90
        0
176
     0
290
     0
176
     0
290
     1
176
     0
290
     1
176
     0
290
     0
176
     0
290
     0
176
     0
290
     0
176
     0
290
     0
176
     0
290
     0
176
     0
290
     0
176
     0
 90
       50
176
     0
 40
0.0
176
     0
 40
1.0
176
     0
 90
        0
176
     0
 62
    18
176
     0
 90
       50
176
     0
 90
        3
176
     0
 62
     5
420
      255
176
     0
290
     0
176
     0
 90
       50
176
     0
 90
       50
176
     0
 90
       50
176
     0
290
     0
176
     0
 90
       50
176
     0
 62
   256
176
     0
 40
1.0
176
     0
 90
        2
176
     0
  1
strokes_ogs.tif
176
     0
290
     0
176
     0
 40
1.0
176
     0
 40
1.0
176
     0
  0
VISUALSTYLE
  5
8D7D
102
{ACAD_REACTORS
330
8D6E
102
}
330
8D6E
100
AcDbVisualStyle
  2

 70
    15
177
     3
291
     1
 70
    58
 90
        2
176
     1
 90
        2
176
     1
 90
        0
176
     1
 90
        0
176
     1
 40
0.6
176
     1
 40
30.0
176
     1
 62
     7
176
     1
 90
        1
176
     1
 90
        4
176
     1
 62
     7
176
     1
 62
   257
176
     1
 90
        1
176
     1
 90
        1
176
     1
 40
1.0
176
     1
 90
        8
176
     1
 62
     7
176
     1
 40
1.0
176
     1
 90
        1
176
     1
 90
        6
176
     1
 90
        2
176
     1
 62
     7
176
     1
 90
        5
176
     1
 90
        0
176
     1
 90
        0
176
     1
290
     0
176
     1
 90
        1
176
     1
 40
0.0
176
     1
 90
        0
176
     1
290
     0
176
     1
290
     1
176
     1
290
     1
176
     1
290
     0
176
     1
290
     0
176
     1
290
     0
176
     1
290
     0
176
     1
290
     0
176
     1
290
     0
176
     1
 90
       50
176
     1
 40
0.0
176
     1
 40
1.0
176
     1
 90
        0
176
     1
 62
    18
176
     1
 90
       50
176
     1
 90
        3
176
     1
 62
     5
420
      255
176
     1
290
     0
176
     1
 90
       50
176
     1
 90
       50
176
     1
 90
       50
176
     1
290
     0
176
     1
 90
       50
176
     1
 62
   256
176
     0
 40
1.0
176
     0
 90
        2
176
     1
  1
strokes_ogs.tif
176
     1
290
     0
176
     1
 40
1.0
176
     1
 40
1.0
176
     1
  0
VISUALSTYLE
  5
8D6F
102
{ACAD_REACTORS
330
8D6E
102
}
330
8D6E
100
AcDbVisualStyle
  2

 70
     0
177
     3
291
     1
 70
    58
 90
        2
176
     1
 90
        1
176
     1
 90
        1
176
     1
 90
        2
176
     1
 40
0.6
176
     1
 40
30.0
176
     1
 62
     7
176
     1
 90
        0
176
     1
 90
        0
176
     1
 62
     7
176
     1
 62
   257
176
     1
 90
        1
176
     1
 90
        1
176
     1
 40
1.0
176
     1
 90
        8
176
     1
 62
     7
176
     1
 40
1.0
176
     1
 90
        1
176
     1
 90
        6
176
     1
 90
        2
176
     1
 62
     7
176
     1
 90
        5
176
     1
 90
        0
176
     1
 90
        0
176
     1
290
     0
176
     1
 90
       13
176
     1
 40
0.0
176
     1
 90
        0
176
     1
290
     0
176
     1
290
     1
176
     1
290
     1
176
     1
290
     0
176
     1
290
     0
176
     1
290
     0
176
     1
290
     0
176
     1
290
     0
176
     1
290
     0
176
     1
 90
       50
176
     1
 40
0.0
176
     1
 40
1.0
176
     1
 90
        0
176
     1
 62
    18
176
     1
 90
       50
176
     1
 90
        3
176
     1
 62
     5
420
      255
176
     1
290
     0
176
     1
 90
       50
176
     1
 90
       50
176
     1
 90
       50
176
     1
290
     0
176
     1
 90
       50
176
     1
 62
   256
176
     0
 40
1.0
176
     0
 90
        2
176
     1
  1
strokes_ogs.tif
176
     1
290
     0
176
     1
 40
1.0
176
     1
 40
1.0
176
     1
  0
VISUALSTYLE
  5
8D70
102
{ACAD_REACTORS
330
8D6E
102
}
330
8D6E
100
AcDbVisualStyle
  2

 70
     1
177
     3
291
     1
 70
    58
 90
        2
176
     1
 90
        1
176
     1
 90
        1
176
     1
 90
        2
176
     1
 40
0.6
176
     1
 40
30.0
176
     1
 62
     7
176
     1
 90
        1
176
     1
 90
        0
176
     1
 62
     7
176
     1
 62
   257
176
     1
 90
        1
176
     1
 90
        1
176
     1
 40
1.0
176
     1
 90
        0
176
     1
 62
   257
176
     1
 40
1.0
176
     1
 90
        1
176
     1
 90
        6
176
     1
 90
        2
176
     1
 62
     7
176
     1
 90
        5
176
     1
 90
        0
176
     1
 90
        0
176
     1
290
     0
176
     1
 90
       13
176
     1
 40
0.0
176
     1
 90
        0
176
     1
290
     0
176
     1
290
     1
176
     1
290
     1
176
     1
290
     0
176
     1
290
     0
176
     1
290
     0
176
     1
290
     0
176
     1
290
     0
176
     1
290
     0
176
     1
 90
       50
176
     1
 40
0.0
176
     1
 40
1.0
176
     1
 90
        0
176
     1
 62
    18
176
     1
 90
       50
176
     1
 90
        3
176
     1
 62
     5
420
      255
176
     1
290
     0
176
     1
 90
       50
176
     1
 90
       50
176
     1
 90
       50
176
     1
290
     0
176
     1
 90
       50
176
     1
 62
   256
176
     0
 40
1.0
176
     0
 90
        2
176
     1
  1
strokes_ogs.tif
176
     1
290
     0
176
     1
 40
1.0
176
     1
 40
1.0
176
     1
  0
VISUALSTYLE
  5
8D71
102
{ACAD_REACTORS
330
8D6E
102
}
330
8D6E
100
AcDbVisualStyle
  2

 70
     2
177
     3
291
     1
 70
    58
 90
        2
176
     1
 90
        2
176
     1
 90
        1
176
     1
 90
        2
176
     1
 40
0.6
176
     1
 40
30.0
176
     1
 62
     7
176
     1
 90
        0
176
     1
 90
        0
176
     1
 62
     7
176
     1
 62
   257
176
     1
 90
        1
176
     1
 90
        1
176
     1
 40
1.0
176
     1
 90
        0
176
     1
 62
     7
176
     1
 40
1.0
176
     1
 90
        1
176
     1
 90
        6
176
     1
 90
        2
176
     1
 62
     7
176
     1
 90
        5
176
     1
 90
        0
176
     1
 90
        0
176
     1
290
     0
176
     1
 90
       13
176
     1
 40
0.0
176
     1
 90
        0
176
     1
290
     0
176
     1
290
     1
176
     1
290
     1
176
     1
290
     0
176
     1
290
     0
176
     1
290
     0
176
     1
290
     0
176
     1
290
     0
176
     1
290
     0
176
     1
 90
       50
176
     1
 40
0.0
176
     1
 40
1.0
176
     1
 90
        0
176
     1
 62
    18
176
     1
 90
       50
176
     1
 90
        3
176
     1
 62
     5
420
      255
176
     1
290
     0
176
     1
 90
       50
176
     1
 90
       50
176
     1
 90
       50
176
     1
290
     0
176
     1
 90
       50
176
     1
 62
   256
176
     0
 40
1.0
176
     0
 90
        2
176
     1
  1
strokes_ogs.tif
176
     1
290
     0
176
     1
 40
1.0
176
     1
 40
1.0
176
     1
  0
VISUALSTYLE
  5
8D72
102
{ACAD_REACTORS
330
8D6E
102
}
330
8D6E
100
AcDbVisualStyle
  2

 70
     3
177
     3
291
     1
 70
    58
 90
        2
176
     1
 90
        2
176
     1
 90
        1
176
     1
 90
        2
176
     1
 40
0.6
176
     1
 40
30.0
176
     1
 62
     7
176
     1
 90
        1
176
     1
 90
        0
176
     1
 62
     7
176
     1
 62
   257
176
     1
 90
        1
176
     1
 90
        1
176
     1
 40
1.0
176
     1
 90
        0
176
     1
 62
   257
176
     1
 40
1.0
176
     1
 90
        1
176
     1
 90
        6
176
     1
 90
        2
176
     1
 62
     7
176
     1
 90
        5
176
     1
 90
        0
176
     1
 90
        0
176
     1
290
     0
176
     1
 90
       13
176
     1
 40
0.0
176
     1
 90
        0
176
     1
290
     0
176
     1
290
     1
176
     1
290
     1
176
     1
290
     0
176
     1
290
     0
176
     1
290
     0
176
     1
290
     0
176
     1
290
     0
176
     1
290
     0
176
     1
 90
       50
176
     1
 40
0.0
176
     1
 40
1.0
176
     1
 90
        0
176
     1
 62
    18
176
     1
 90
       50
176
     1
 90
        3
176
     1
 62
     5
420
      255
176
     1
290
     0
176
     1
 90
       50
176
     1
 90
       50
176
     1
 90
       50
176
     1
290
     0
176
     1
 90
       50
176
     1
 62
   256
176
     0
 40
1.0
176
     0
 90
        2
176
     1
  1
strokes_ogs.tif
176
     1
290
     0
176
     1
 40
1.0
176
     1
 40
1.0
176
     1
  0
VISUALSTYLE
  5
8D76
102
{ACAD_REACTORS
330
8D6E
102
}
330
8D6E
100
AcDbVisualStyle
  2

 70
     6
177
     3
291
     0
 70
    58
 90
        1
176
     1
 90
        2
176
     1
 90
        2
176
     1
 90
        0
176
     1
 40
0.6
176
     1
 40
30.0
176
     1
 62
     7
176
     1
 90
        2
176
     1
 90
        2
176
     1
 62
     7
176
     1
 62
   257
176
     1
 90
        2
176
     1
 90
        1
176
     1
 40
40.0
176
     1
 90
        0
176
     1
 62
   257
176
     1
 40
1.0
176
     1
 90
        1
176
     1
 90
        6
176
     1
 90
        2
176
     1
 62
     7
176
     1
 90
        3
176
     1
 90
        0
176
     1
 90
        0
176
     1
290
     0
176
     1
 90
        1
176
     1
 40
0.0
176
     1
 90
        0
176
     1
290
     0
176
     1
290
     1
176
     1
290
     1
176
     1
290
     0
176
     1
290
     0
176
     1
290
     0
176
     1
290
     0
176
     1
290
     0
176
     1
290
     0
176
     1
 90
       50
176
     1
 40
0.0
176
     1
 40
1.0
176
     1
 90
        0
176
     1
 62
    18
176
     1
 90
       50
176
     1
 90
        3
176
     1
 62
     5
420
      255
176
     1
290
     0
176
     1
 90
       50
176
     1
 90
       50
176
     1
 90
       50
176
     1
290
     0
176
     1
 90
       50
176
     1
 62
   256
176
     0
 40
1.0
176
     0
 90
        2
176
     1
  1
strokes_ogs.tif
176
     1
290
     0
176
     1
 40
1.0
176
     1
 40
1.0
176
     1
  0
VISUALSTYLE
  5
8D84
102
{ACAD_REACTORS
330
8D6E
102
}
330
8D6E
100
AcDbVisualStyle
  2

 70
    20
177
     3
291
     1
 70
    58
 90
        2
176
     0
 90
        2
176
     0
 90
        0
176
     0
 90
        0
176
     0
 40
0.6
176
     0
 40
30.0
176
     0
 62
     7
176
     0
 90
        1
176
     0
 90
        4
176
     0
 62
     7
176
     0
 62
   257
176
     0
 90
        1
176
     0
 90
        1
176
     0
 40
1.0
176
     0
 90
       10
176
     2
 62
     7
176
     0
 40
1.0
176
     0
 90
        1
176
     0
 90
        6
176
     0
 90
        2
176
     0
 62
     7
176
     0
 90
        5
176
     0
 90
        0
176
     0
 90
        0
176
     0
290
     0
176
     0
 90
        1
176
     0
 40
0.0
176
     0
 90
        0
176
     0
290
     0
176
     0
290
     1
176
     0
290
     1
176
     0
290
     0
176
     0
290
     0
176
     0
290
     0
176
     0
290
     0
176
     0
290
     0
176
     0
290
     0
176
     0
 90
       50
176
     0
 40
0.0
176
     0
 40
1.0
176
     0
 90
        0
176
     0
 62
    18
176
     0
 90
       50
176
     0
 90
        3
176
     0
 62
     5
420
      255
176
     0
290
     0
176
     0
 90
       50
176
     0
 90
       50
176
     0
 90
       50
176
     0
290
     0
176
     0
 90
       50
176
     0
 62
   256
176
     0
 40
1.0
176
     0
 90
        2
176
     0
  1
strokes_ogs.tif
176
     0
290
     0
176
     0
 40
1.0
176
     0
 40
1.0
176
     0
  0
VISUALSTYLE
  5
8D7C
102
{ACAD_REACTORS
330
8D6E
102
}
330
8D6E
100
AcDbVisualStyle
  2

 70
    14
177
     3
291
     1
 70
    58
 90
        2
176
     1
 90
        2
176
     1
 90
        0
176
     1
 90
        0
176
     1
 40
0.6
176
     1
 40
30.0
176
     1
 62
     7
176
     1
 90
        1
176
     1
 90
        4
176
     1
 62
     7
176
     1
 62
   257
176
     1
 90
        7
176
     1
 90
        7
176
     1
 40
1.0
176
     1
 90
        8
176
     1
 62
     7
176
     1
 40
1.0
176
     1
 90
        1
176
     1
 90
        6
176
     1
 90
        2
176
     1
 62
     7
176
     1
 90
        5
176
     1
 90
        0
176
     1
 90
        0
176
     1
290
     0
176
     1
 90
        1
176
     1
 40
0.0
176
     1
 90
        0
176
     1
290
     0
176
     1
290
     1
176
     1
290
     1
176
     1
290
     0
176
     1
290
     0
176
     1
290
     0
176
     1
290
     0
176
     1
290
     0
176
     1
290
     0
176
     1
 90
       50
176
     1
 40
0.0
176
     1
 40
1.0
176
     1
 90
        0
176
     1
 62
    18
176
     1
 90
       50
176
     1
 90
        3
176
     1
 62
     5
420
      255
176
     1
290
     0
176
     1
 90
       50
176
     1
 90
       50
176
     1
 90
       50
176
     1
290
     0
176
     1
 90
       50
176
     1
 62
   256
176
     0
 40
1.0
176
     0
 90
        2
176
     1
  1
strokes_ogs.tif
176
     1
290
     0
176
     1
 40
1.0
176
     1
 40
1.0
176
     1
  0
VISUALSTYLE
  5
8D85
102
{ACAD_REACTORS
330
8D6E
102
}
330
8D6E
100
AcDbVisualStyle
  2

 70
    21
177
     3
291
     1
 70
    58
 90
        2
176
     0
 90
        2
176
     0
 90
        0
176
     0
 90
        0
176
     0
 40
0.6
176
     0
 40
30.0
176
     0
 62
     7
176
     0
 90
        1
176
     0
 90
        4
176
     0
 62
     7
176
     0
 62
   257
176
     0
 90
        1
176
     0
 90
        1
176
     0
 40
1.0
176
     0
 90
        9
176
     2
 62
     7
176
     0
 40
1.0
176
     0
 90
        1
176
     0
 90
        6
176
     0
 90
        2
176
     0
 62
     7
176
     0
 90
        5
176
     0
 90
        0
176
     0
 90
        0
176
     0
290
     0
176
     0
 90
        1
176
     0
 40
0.0
176
     0
 90
        0
176
     0
290
     0
176
     0
290
     1
176
     0
290
     1
176
     0
290
     0
176
     0
290
     0
176
     0
290
     0
176
     0
290
     0
176
     0
290
     0
176
     0
290
     0
176
     0
 90
       50
176
     0
 40
0.0
176
     0
 40
1.0
176
     0
 90
        0
176
     0
 62
    18
176
     0
 90
       50
176
     0
 90
        3
176
     0
 62
     5
420
      255
176
     0
290
     0
176
     0
 90
       50
176
     0
 90
       50
176
     0
 90
       50
176
     0
290
     0
176
     0
 90
       50
176
     0
 62
   256
176
     0
 40
1.0
176
     0
 90
        2
176
     0
  1
strokes_ogs.tif
176
     0
290
     0
176
     0
 40
1.0
176
     0
 40
1.0
176
     0
  0
VISUALSTYLE
  5
8D78
102
{ACAD_REACTORS
330
8D6E
102
}
330
8D6E
100
AcDbVisualStyle
  2

 70
     8
177
     3
291
     0
 70
    58
 90
        2
176
     1
 90
        2
176
     1
 90
        0
176
     1
 90
        2
176
     1
 40
0.6
176
     1
 40
30.0
176
     1
 62
     7
176
     1
 90
        0
176
     1
 90
        0
176
     1
 62
     7
176
     1
 62
   257
176
     1
 90
        1
176
     1
 90
        1
176
     1
 40
1.0
176
     1
 90
        8
176
     1
 62
   257
176
     1
 40
1.0
176
     1
 90
        1
176
     1
 90
        6
176
     1
 90
        2
176
     1
 62
     7
176
     1
 90
        3
176
     1
 90
        0
176
     1
 90
        0
176
     1
290
     0
176
     1
 90
       13
176
     1
 40
0.0
176
     1
 90
        0
176
     1
290
     0
176
     1
290
     1
176
     1
290
     1
176
     1
290
     0
176
     1
290
     0
176
     1
290
     0
176
     1
290
     0
176
     1
290
     0
176
     1
290
     0
176
     1
 90
       50
176
     1
 40
0.0
176
     1
 40
1.0
176
     1
 90
        0
176
     1
 62
    18
176
     1
 90
       50
176
     1
 90
        3
176
     1
 62
     5
420
      255
176
     1
290
     0
176
     1
 90
       50
176
     1
 90
       50
176
     1
 90
       50
176
     1
290
     0
176
     1
 90
       50
176
     1
 62
   256
176
     0
 40
1.0
176
     0
 90
        2
176
     1
  1
strokes_ogs.tif
176
     1
290
     0
176
     1
 40
1.0
176
     1
 40
1.0
176
     1
  0
VISUALSTYLE
  5
8D83
102
{ACAD_REACTORS
330
8D6E
102
}
330
8D6E
100
AcDbVisualStyle
  2

 70
    27
177
     3
291
     0
 70
    58
 90
        2
176
     1
 90
        2
176
     1
 90
        1
176
     1
 90
        2
176
     1
 40
0.6
176
     1
 40
30.0
176
     1
 62
     7
176
     1
 90
        0
176
     1
 90
        4
176
     1
 62
     7
176
     1
 62
   257
176
     1
 90
        1
176
     1
 90
        1
176
     1
 40
1.0
176
     1
 90
        8
176
     1
 62
   257
176
     1
 40
1.0
176
     1
 90
        1
176
     1
 90
        6
176
     1
 90
        2
176
     1
 62
     8
176
     1
 90
        3
176
     1
 90
        0
176
     1
 90
        0
176
     1
290
     0
176
     1
 90
        5
176
     1
 40
0.0
176
     1
 90
        0
176
     1
290
     0
176
     1
290
     1
176
     1
290
     1
176
     1
290
     0
176
     1
290
     0
176
     1
290
     0
176
     1
290
     0
176
     1
290
     0
176
     1
290
     0
176
     1
 90
       50
176
     1
 40
0.0
176
     1
 40
1.0
176
     1
 90
        0
176
     1
 62
    18
176
     1
 90
       50
176
     1
 90
        3
176
     1
 62
     5
420
      255
176
     1
290
     0
176
     1
 90
       50
176
     1
 90
       50
176
     1
 90
       50
176
     1
290
     0
176
     1
 90
       50
176
     1
 62
   256
176
     0
 40
1.0
176
     0
 90
        2
176
     1
  1
strokes_ogs.tif
176
     1
290
     0
176
     1
 40
1.0
176
     1
 40
1.0
176
     1
  0
VISUALSTYLE
  5
8D82
102
{ACAD_REACTORS
330
8D6E
102
}
330
8D6E
100
AcDbVisualStyle
  2

 70
    26
177
     3
291
     0
 70
    58
 90
        2
176
     1
 90
        2
176
     1
 90
        1
176
     1
 90
        2
176
     1
 40
0.6
176
     1
 40
30.0
176
     1
 62
     7
176
     1
 90
        1
176
     1
 90
       10
176
     1
 62
     7
176
     1
 62
   257
176
     1
 90
        2
176
     1
 90
        1
176
     1
 40
1.0
176
     1
 90
        8
176
     1
 62
   257
176
     1
 40
1.0
176
     1
 90
        1
176
     1
 90
        6
176
     1
 90
        2
176
     1
 62
     7
176
     1
 90
        3
176
     1
 90
        0
176
     1
 90
        0
176
     1
290
     0
176
     1
 90
        5
176
     1
 40
0.0
176
     1
 90
        0
176
     1
290
     0
176
     1
290
     1
176
     1
290
     1
176
     1
290
     0
176
     1
290
     0
176
     1
290
     0
176
     1
290
     0
176
     1
290
     0
176
     1
290
     0
176
     1
 90
       50
176
     1
 40
0.0
176
     1
 40
1.0
176
     1
 90
        0
176
     1
 62
    18
176
     1
 90
       50
176
     1
 90
        3
176
     1
 62
     5
420
      255
176
     1
290
     0
176
     1
 90
       50
176
     1
 90
       50
176
     1
 90
       50
176
     1
290
     0
176
     1
 90
       50
176
     1
 62
   256
176
     0
 40
1.0
176
     0
 90
        2
176
     1
  1
strokes_ogs.tif
176
     1
290
     0
176
     1
 40
1.0
176
     1
 40
1.0
176
     1
  0
VISUALSTYLE
  5
8D7F
102
{ACAD_REACTORS
330
8D6E
102
}
330
8D6E
100
AcDbVisualStyle
  2

 70
    23
177
     3
291
     0
 70
    58
 90
        2
176
     1
 90
        2
176
     1
 90
        3
176
     1
 90
        0
176
     1
 40
0.6
176
     1
 40
30.0
176
     1
 62
     7
176
     1
 90
        2
176
     1
 90
        2
176
     1
 62
     7
176
     1
 62
     7
176
     1
 90
        1
176
     1
 90
        1
176
     1
 40
40.0
176
     1
 90
        8
176
     1
 62
     7
176
     1
 40
1.0
176
     1
 90
        1
176
     1
 90
        6
176
     1
 90
        2
176
     1
 62
     7
176
     1
 90
        3
176
     1
 90
        0
176
     1
 90
        0
176
     1
290
     0
176
     1
 90
        1
176
     1
 40
0.0
176
     1
 90
        0
176
     1
290
     0
176
     1
290
     1
176
     1
290
     1
176
     1
290
     0
176
     1
290
     0
176
     1
290
     0
176
     1
290
     0
176
     1
290
     0
176
     1
290
     0
176
     1
 90
       50
176
     1
 40
0.0
176
     1
 40
1.0
176
     1
 90
        0
176
     1
 62
    18
176
     1
 90
       50
176
     1
 90
        3
176
     1
 62
     5
420
      255
176
     1
290
     0
176
     1
 90
       50
176
     1
 90
       50
176
     1
 90
       50
176
     1
290
     0
176
     1
 90
       50
176
     1
 62
   256
176
     0
 40
1.0
176
     0
 90
        2
176
     1
  1
strokes_ogs.tif
176
     1
290
     0
176
     1
 40
1.0
176
     1
 40
1.0
176
     1
  0
VISUALSTYLE
  5
8D80
102
{ACAD_REACTORS
330
8D6E
102
}
330
8D6E
100
AcDbVisualStyle
  2

 70
    24
177
     3
291
     0
 70
    58
 90
        1
176
     1
 90
        2
176
     1
 90
        2
176
     1
 90
        0
176
     1
 40
0.6
176
     1
 40
30.0
176
     1
 62
     7
176
     1
 90
        2
176
     1
 90
        2
176
     1
 62
     7
176
     1
 62
     7
176
     1
 90
        1
176
     1
 90
        1
176
     1
 40
40.0
176
     1
 90
       11
176
     1
 62
     7
176
     1
 40
1.0
176
     1
 90
        1
176
     1
 90
        6
176
     1
 90
        2
176
     1
 62
     7
176
     1
 90
        6
176
     1
 90
        0
176
     1
 90
        0
176
     1
290
     0
176
     1
 90
        1
176
     1
 40
0.0
176
     1
 90
        0
176
     1
290
     0
176
     1
290
     1
176
     1
290
     1
176
     1
290
     0
176
     1
290
     0
176
     1
290
     0
176
     1
290
     0
176
     1
290
     0
176
     1
290
     0
176
     1
 90
       50
176
     1
 40
0.0
176
     1
 40
1.0
176
     1
 90
        0
176
     1
 62
    18
176
     1
 90
       50
176
     1
 90
        3
176
     1
 62
     5
420
      255
176
     1
290
     0
176
     1
 90
       50
176
     1
 90
       50
176
     1
 90
       50
176
     1
290
     0
176
     1
 90
       50
176
     1
 62
   256
176
     0
 40
1.0
176
     0
 90
        2
176
     1
  1
strokes_ogs.tif
176
     1
290
     0
176
     1
 40
1.0
176
     1
 40
1.0
176
     1
  0
VISUALSTYLE
  5
8D7B
102
{ACAD_REACTORS
330
8D6E
102
}
330
8D6E
100
AcDbVisualStyle
  2

 70
    13
177
     3
291
     1
 70
    58
 90
        2
176
     1
 90
        2
176
     1
 90
        0
176
     1
 90
        0
176
     1
 40
0.6
176
     1
 40
30.0
176
     1
 62
     7
176
     1
 90
        1
176
     1
 90
        4
176
     1
 62
     7
176
     1
 62
   257
176
     1
 90
        1
176
     1
 90
        1
176
     1
 40
1.0
176
     1
 90
       12
176
     1
 62
     7
176
     1
 40
1.0
176
     1
 90
        1
176
     1
 90
        6
176
     1
 90
        2
176
     1
 62
     7
176
     1
 90
        5
176
     1
 90
        0
176
     1
 90
        0
176
     1
290
     0
176
     1
 90
        1
176
     1
 40
0.0
176
     1
 90
        0
176
     1
290
     0
176
     1
290
     1
176
     1
290
     1
176
     1
290
     0
176
     1
290
     0
176
     1
290
     0
176
     1
290
     0
176
     1
290
     0
176
     1
290
     0
176
     1
 90
       50
176
     1
 40
0.0
176
     1
 40
1.0
176
     1
 90
        0
176
     1
 62
    18
176
     1
 90
       50
176
     1
 90
        3
176
     1
 62
     5
420
      255
176
     1
290
     0
176
     1
 90
       50
176
     1
 90
       50
176
     1
 90
       50
176
     1
290
     0
176
     1
 90
       50
176
     1
 62
   256
176
     0
 40
1.0
176
     0
 90
        2
176
     1
  1
strokes_ogs.tif
176
     1
290
     0
176
     1
 40
1.0
176
     1
 40
1.0
176
     1
  0
VISUALSTYLE
  5
8D75
102
{ACAD_REACTORS
330
8D6E
102
}
330
8D6E
100
AcDbVisualStyle
  2

 70
     5
177
     3
291
     0
 70
    58
 90
        0
176
     1
 90
        2
176
     1
 90
        0
176
     1
 90
        0
176
     1
 40
0.6
176
     1
 40
30.0
176
     1
 62
     7
176
     1
 90
        1
176
     1
 90
        4
176
     1
 62
     7
176
     1
 62
   257
176
     1
 90
        1
176
     1
 90
        1
176
     1
 40
1.0
176
     1
 90
        0
176
     1
 62
   257
176
     1
 40
1.0
176
     1
 90
        1
176
     1
 90
        6
176
     1
 90
        2
176
     1
 62
     7
176
     1
 90
        3
176
     1
 90
        0
176
     1
 90
        0
176
     1
290
     0
176
     1
 90
        1
176
     1
 40
0.0
176
     1
 90
        0
176
     1
290
     0
176
     1
290
     1
176
     1
290
     1
176
     1
290
     0
176
     1
290
     0
176
     1
290
     0
176
     1
290
     0
176
     1
290
     0
176
     1
290
     0
176
     1
 90
       50
176
     1
 40
0.0
176
     1
 40
1.0
176
     1
 90
        0
176
     1
 62
    18
176
     1
 90
       50
176
     1
 90
        3
176
     1
 62
     5
420
      255
176
     1
290
     0
176
     1
 90
       50
176
     1
 90
       50
176
     1
 90
       50
176
     1
290
     0
176
     1
 90
       50
176
     1
 62
   256
176
     0
 40
1.0
176
     0
 90
        2
176
     1
  1
strokes_ogs.tif
176
     1
290
     0
176
     1
 40
1.0
176
     1
 40
1.0
176
     1
  0
VISUALSTYLE
  5
8D81
102
{ACAD_REACTORS
330
8D6E
102
}
330
8D6E
100
AcDbVisualStyle
  2

 70
    25
177
     3
291
     0
 70
    58
 90
        2
176
     1
 90
        2
176
     1
 90
        1
176
     1
 90
        1
176
     1
 40
0.5
176
     1
 40
30.0
176
     1
 62
     7
176
     1
 90
        1
176
     1
 90
        0
176
     1
 62
     7
176
     1
 62
   257
176
     1
 90
        1
176
     1
 90
        1
176
     1
 40
1.0
176
     1
 90
        8
176
     1
 62
     7
176
     1
 40
1.0
176
     1
 90
        1
176
     1
 90
        6
176
     1
 90
        2
176
     1
 62
     7
176
     1
 90
        3
176
     1
 90
        0
176
     1
 90
        0
176
     1
290
     0
176
     1
 90
       13
176
     1
 40
0.0
176
     1
 90
        0
176
     1
290
     0
176
     1
290
     1
176
     1
290
     1
176
     1
290
     0
176
     1
290
     0
176
     1
290
     0
176
     1
290
     0
176
     1
290
     0
176
     1
290
     0
176
     1
 90
       50
176
     1
 40
0.0
176
     1
 40
1.0
176
     1
 90
        0
176
     1
 62
    18
176
     1
 90
       50
176
     1
 90
        3
176
     1
 62
     5
420
      255
176
     1
290
     0
176
     1
 90
       50
176
     1
 90
       50
176
     1
 90
       50
176
     1
290
     0
176
     1
 90
       50
176
     1
 62
   256
176
     0
 40
1.0
176
     0
 90
        2
176
     1
  1
strokes_ogs.tif
176
     1
290
     0
176
     1
 40
1.0
176
     1
 40
1.0
176
     1
  0
DICTIONARYVAR
  5
36437
102
{ACAD_REACTORS
330
C6
102
}
330
C6
100
DictionaryVariables
280
     0
  1
1:1
  0
DICTIONARYVAR
  5
8E7A
102
{ACAD_REACTORS
330
C6
102
}
330
C6
100
DictionaryVariables
280
     0
  1
Standard
  0
DICTIONARYVAR
  5
8E79
102
{ACAD_REACTORS
330
C6
102
}
330
C6
100
DictionaryVariables
280
     0
  1
Standard
  0
DICTIONARYVAR
  5
8E7B
102
{ACAD_REACTORS
330
C6
102
}
330
C6
100
DictionaryVariables
280
     0
  1
Metric50
  0
DICTIONARYVAR
  5
8E7C
102
{ACAD_REACTORS
330
C6
102
}
330
C6
100
DictionaryVariables
280
     0
  1
Metric50
  0
DICTIONARYVAR
  5
864
102
{ACAD_REACTORS
330
C6
102
}
330
C6
100
DictionaryVariables
280
     0
  1
1
  0
DICTIONARYVAR
  5
3637B
102
{ACAD_REACTORS
330
C6
102
}
330
C6
100
DictionaryVariables
280
     0
  1
0
  0
DICTIONARYVAR
  5
C7
102
{ACAD_REACTORS
330
C6
102
}
330
C6
100
DictionaryVariables
280
     0
  1
0
  0
DICTIONARYVAR
  5
9BB7
102
{ACAD_REACTORS
330
C6
102
}
330
C6
100
DictionaryVariables
280
     0
  1
1
  0
DICTIONARYVAR
  5
9BB8
102
{ACAD_REACTORS
330
C6
102
}
330
C6
100
DictionaryVariables
280
     0
  1
15
  0
DICTIONARYVAR
  5
9BB6
102
{ACAD_REACTORS
330
C6
102
}
330
C6
100
DictionaryVariables
280
     0
  1
0
  0
DICTIONARYVAR
  5
9BB5
102
{ACAD_REACTORS
330
C6
102
}
330
C6
100
DictionaryVariables
280
     0
  1
0
  0
DICTIONARYVAR
  5
8E7E
102
{ACAD_REACTORS
330
C6
102
}
330
C6
100
DictionaryVariables
280
     0
  1
127
  0
XRECORD
  5
36348
102
{ACAD_REACTORS
330
36347
102
}
330
36347
100
AcDbXrecord
280
     1
1000
13.00
1000
PROFESSIONAL
  0
AMDTSYSATTR
  5
36349
102
{ACAD_REACTORS
330
36347
102
}
330
36347
  0
AMDTSYSATTR
  5
3634A
102
{ACAD_REACTORS
330
36347
102
}
330
36347
  0
DICTIONARY
  5
363DD
330
363DC
100
AcDbDictionary
280
     1
281
     1
  3
ACAD_XREC_ROUNDTRIP
360
37A05
  0
DICTIONARY
  5
370A0
330
3709F
100
AcDbDictionary
280
     1
281
     1
  3
ACAD_XREC_ROUNDTRIP
360
37A06
  0
DICTIONARY
  5
370C4
330
370C3
100
AcDbDictionary
280
     1
281
     1
  3
ACAD_XREC_ROUNDTRIP
360
37A07
  0
DICTIONARY
  5
373A4
330
373A3
100
AcDbDictionary
280
     1
281
     1
  3
ACAD_XREC_ROUNDTRIP
360
37A08
  0
DICTIONARY
  5
37738
330
37737
100
AcDbDictionary
280
     1
281
     1
  3
ACAD_XREC_ROUNDTRIP
360
37A09
  0
DICTIONARY
  5
37757
330
37756
100
AcDbDictionary
280
     1
281
     1
  3
ACAD_XREC_ROUNDTRIP
360
37A0A
  0
DICTIONARY
  5
3795A
330
37959
100
AcDbDictionary
280
     1
281
     1
  3
ACAD_XREC_ROUNDTRIP
360
37980
  0
DICTIONARY
  5
36385
330
8DA1
100
AcDbDictionary
280
     1
281
     1
  3
ACAD_XREC_ROUNDTRIP
360
37A04
  0
DICTIONARY
  5
363E9
330
363E8
100
AcDbDictionary
280
     1
281
     1
  3
ACAD_XREC_ROUNDTRIP
360
37A0C
  0
DICTIONARY
  5
37097
330
37096
100
AcDbDictionary
280
     1
281
     1
  3
ACAD_XREC_ROUNDTRIP
360
37A0D
  0
DICTIONARY
  5
370BA
330
370B9
100
AcDbDictionary
280
     1
281
     1
  3
ACAD_XREC_ROUNDTRIP
360
37A0E
  0
DICTIONARY
  5
37399
330
37398
100
AcDbDictionary
280
     1
281
     1
  3
ACAD_XREC_ROUNDTRIP
360
37A0F
  0
DICTIONARY
  5
3772C
330
3772B
100
AcDbDictionary
280
     1
281
     1
  3
ACAD_XREC_ROUNDTRIP
360
37A10
  0
DICTIONARY
  5
3774A
330
37749
100
AcDbDictionary
280
     1
281
     1
  3
ACAD_XREC_ROUNDTRIP
360
37A11
  0
DICTIONARY
  5
3794C
330
3794B
100
AcDbDictionary
280
     1
281
     1
  3
ACAD_XREC_ROUNDTRIP
360
37971
  0
DICTIONARY
  5
3638F
330
8D9F
100
AcDbDictionary
280
     1
281
     1
  3
ACAD_XREC_ROUNDTRIP
360
37A0B
  0
DICTIONARY
  5
37A12
330
8D89
100
AcDbDictionary
280
     1
281
     1
  3
ACAD_ROUNDTRIP_2008_TABLESTYLE_CELLSTYLEMAP
360
37A13
  0
XRECORD
  5
37A05
102
{ACAD_REACTORS
330
363DD
102
}
330
363DD
100
AcDbXrecord
280
     1
102
DISPLAYNAME
  1
Imperial24
102
FLAGS
 90
        0
  0
XRECORD
  5
37A06
102
{ACAD_REACTORS
330
370A0
102
}
330
370A0
100
AcDbXrecord
280
     1
102
DISPLAYNAME
  1
Imperial24
102
FLAGS
 90
        0
  0
XRECORD
  5
37A07
102
{ACAD_REACTORS
330
370C4
102
}
330
370C4
100
AcDbXrecord
280
     1
102
DISPLAYNAME
  1
Imperial24
102
FLAGS
 90
        0
  0
XRECORD
  5
37A08
102
{ACAD_REACTORS
330
373A4
102
}
330
373A4
100
AcDbXrecord
280
     1
102
DISPLAYNAME
  1
Imperial24
102
FLAGS
 90
        0
  0
XRECORD
  5
37A09
102
{ACAD_REACTORS
330
37738
102
}
330
37738
100
AcDbXrecord
280
     1
102
DISPLAYNAME
  1
Imperial24
102
FLAGS
 90
        0
  0
XRECORD
  5
37A0A
102
{ACAD_REACTORS
330
37757
102
}
330
37757
100
AcDbXrecord
280
     1
102
DISPLAYNAME
  1
Imperial24
102
FLAGS
 90
        0
  0
XRECORD
  5
37980
102
{ACAD_REACTORS
330
3795A
102
}
330
3795A
100
AcDbXrecord
280
     1
102
DISPLAYNAME
  1
Imperial24
102
FLAGS
 90
        0
  0
XRECORD
  5
37A04
102
{ACAD_REACTORS
330
36385
102
}
330
36385
100
AcDbXrecord
280
     1
102
DISPLAYNAME
  1
Metric50
102
FLAGS
 90
        0
  0
XRECORD
  5
37A0C
102
{ACAD_REACTORS
330
363E9
102
}
330
363E9
100
AcDbXrecord
280
     1
102
DISPLAYNAME
  1
Imperial24
102
FLAGS
 90
        0
  0
XRECORD
  5
37A0D
102
{ACAD_REACTORS
330
37097
102
}
330
37097
100
AcDbXrecord
280
     1
102
DISPLAYNAME
  1
Imperial24
102
FLAGS
 90
        0
  0
XRECORD
  5
37A0E
102
{ACAD_REACTORS
330
370BA
102
}
330
370BA
100
AcDbXrecord
280
     1
102
DISPLAYNAME
  1
Imperial24
102
FLAGS
 90
        0
  0
XRECORD
  5
37A0F
102
{ACAD_REACTORS
330
37399
102
}
330
37399
100
AcDbXrecord
280
     1
102
DISPLAYNAME
  1
Imperial24
102
FLAGS
 90
        0
  0
XRECORD
  5
37A10
102
{ACAD_REACTORS
330
3772C
102
}
330
3772C
100
AcDbXrecord
280
     1
102
DISPLAYNAME
  1
Imperial24
102
FLAGS
 90
        0
  0
XRECORD
  5
37A11
102
{ACAD_REACTORS
330
3774A
102
}
330
3774A
100
AcDbXrecord
280
     1
102
DISPLAYNAME
  1
Imperial24
102
FLAGS
 90
        0
  0
XRECORD
  5
37971
102
{ACAD_REACTORS
330
3794C
102
}
330
3794C
100
AcDbXrecord
280
     1
102
DISPLAYNAME
  1
Imperial24
102
FLAGS
 90
        0
  0
XRECORD
  5
37A0B
102
{ACAD_REACTORS
330
3638F
102
}
330
3638F
100
AcDbXrecord
280
     1
102
DISPLAYNAME
  1
Metric50
102
FLAGS
 90
        0
  0
CELLSTYLEMAP
  5
37A13
102
{ACAD_REACTORS
330
37A12
102
}
330
37A12
100
AcDbCellStyleMap
 90
        3
300
CELLSTYLE
  1
TABLEFORMAT_BEGIN
 90
        5
170
     1
 91
        0
 92
    32768
 62
   257
 93
        1
300
CONTENTFORMAT
  1
CONTENTFORMAT_BEGIN
 90
        0
 91
        0
 92
        4
 93
        0
300

 40
0.0
140
1.0
 94
        5
 62
     0
340
F
144
6.0
309
CONTENTFORMAT_END
171
     1
301
MARGIN
  1
CELLMARGIN_BEGIN
 40
1.5
 40
1.5
 40
1.5
 40
1.5
 40
0.18
 40
0.18
309
CELLMARGIN_END
 94
        6
 95
        1
302
GRIDFORMAT
  1
GRIDFORMAT_BEGIN
 90
        0
 91
        1
 62
     0
 92
       -2
340
0
 93
        0
 40
0.045
309
GRIDFORMAT_END
 95
        2
302
GRIDFORMAT
  1
GRIDFORMAT_BEGIN
 90
        0
 91
        1
 62
     0
 92
       -2
340
0
 93
        0
 40
0.045
309
GRIDFORMAT_END
 95
        4
302
GRIDFORMAT
  1
GRIDFORMAT_BEGIN
 90
        0
 91
        1
 62
     0
 92
       -2
340
0
 93
        0
 40
0.045
309
GRIDFORMAT_END
 95
        8
302
GRIDFORMAT
  1
GRIDFORMAT_BEGIN
 90
        0
 91
        1
 62
     0
 92
       -2
340
0
 93
        0
 40
0.045
309
GRIDFORMAT_END
 95
       16
302
GRIDFORMAT
  1
GRIDFORMAT_BEGIN
 90
        0
 91
        1
 62
     0
 92
       -2
340
0
 93
        0
 40
0.045
309
GRIDFORMAT_END
 95
       32
302
GRIDFORMAT
  1
GRIDFORMAT_BEGIN
 90
        0
 91
        1
 62
     0
 92
       -2
340
0
 93
        0
 40
0.045
309
GRIDFORMAT_END
309
TABLEFORMAT_END
  1
CELLSTYLE_BEGIN
 90
        1
 91
        1
300
_TITLE
309
CELLSTYLE_END
300
CELLSTYLE
  1
TABLEFORMAT_BEGIN
 90
        5
170
     1
 91
        0
 92
        0
 62
   257
 93
        1
300
CONTENTFORMAT
  1
CONTENTFORMAT_BEGIN
 90
        0
 91
        0
 92
        4
 93
        0
300

 40
0.0
140
1.0
 94
        5
 62
     0
340
F
144
4.5
309
CONTENTFORMAT_END
171
     1
301
MARGIN
  1
CELLMARGIN_BEGIN
 40
1.5
 40
1.5
 40
1.5
 40
1.5
 40
0.18
 40
0.18
309
CELLMARGIN_END
 94
        6
 95
        1
302
GRIDFORMAT
  1
GRIDFORMAT_BEGIN
 90
        0
 91
        1
 62
     0
 92
       -2
340
0
 93
        0
 40
0.045
309
GRIDFORMAT_END
 95
        2
302
GRIDFORMAT
  1
GRIDFORMAT_BEGIN
 90
        0
 91
        1
 62
     0
 92
       -2
340
0
 93
        0
 40
0.045
309
GRIDFORMAT_END
 95
        4
302
GRIDFORMAT
  1
GRIDFORMAT_BEGIN
 90
        0
 91
        1
 62
     0
 92
       -2
340
0
 93
        0
 40
0.045
309
GRIDFORMAT_END
 95
        8
302
GRIDFORMAT
  1
GRIDFORMAT_BEGIN
 90
        0
 91
        1
 62
     0
 92
       -2
340
0
 93
        0
 40
0.045
309
GRIDFORMAT_END
 95
       16
302
GRIDFORMAT
  1
GRIDFORMAT_BEGIN
 90
        0
 91
        1
 62
     0
 92
       -2
340
0
 93
        0
 40
0.045
309
GRIDFORMAT_END
 95
       32
302
GRIDFORMAT
  1
GRIDFORMAT_BEGIN
 90
        0
 91
        1
 62
     0
 92
       -2
340
0
 93
        0
 40
0.045
309
GRIDFORMAT_END
309
TABLEFORMAT_END
  1
CELLSTYLE_BEGIN
 90
        2
 91
        1
300
_HEADER
309
CELLSTYLE_END
300
CELLSTYLE
  1
TABLEFORMAT_BEGIN
 90
        5
170
     1
 91
        0
 92
        0
 62
   257
 93
        1
300
CONTENTFORMAT
  1
CONTENTFORMAT_BEGIN
 90
        0
 91
        0
 92
        4
 93
        0
300

 40
0.0
140
1.0
 94
        2
 62
     0
340
F
144
4.5
309
CONTENTFORMAT_END
171
     1
301
MARGIN
  1
CELLMARGIN_BEGIN
 40
1.5
 40
1.5
 40
1.5
 40
1.5
 40
0.18
 40
0.18
309
CELLMARGIN_END
 94
        6
 95
        1
302
GRIDFORMAT
  1
GRIDFORMAT_BEGIN
 90
        0
 91
        1
 62
     0
 92
       -2
340
0
 93
        0
 40
0.045
309
GRIDFORMAT_END
 95
        2
302
GRIDFORMAT
  1
GRIDFORMAT_BEGIN
 90
        0
 91
        1
 62
     0
 92
       -2
340
0
 93
        0
 40
0.045
309
GRIDFORMAT_END
 95
        4
302
GRIDFORMAT
  1
GRIDFORMAT_BEGIN
 90
        0
 91
        1
 62
     0
 92
       -2
340
0
 93
        0
 40
0.045
309
GRIDFORMAT_END
 95
        8
302
GRIDFORMAT
  1
GRIDFORMAT_BEGIN
 90
        0
 91
        1
 62
     0
 92
       -2
340
0
 93
        0
 40
0.045
309
GRIDFORMAT_END
 95
       16
302
GRIDFORMAT
  1
GRIDFORMAT_BEGIN
 90
        0
 91
        1
 62
     0
 92
       -2
340
0
 93
        0
 40
0.045
309
GRIDFORMAT_END
 95
       32
302
GRIDFORMAT
  1
GRIDFORMAT_BEGIN
 90
        0
 91
        1
 62
     0
 92
       -2
340
0
 93
        0
 40
0.045
309
GRIDFORMAT_END
309
TABLEFORMAT_END
  1
CELLSTYLE_BEGIN
 90
        3
 91
        2
300
_DATA
309
CELLSTYLE_END
  0
ENDSEC
  0
EOF
